  0
SECTION
  2
HEADER
  9
$ACADVER
  1
AC1009
  9
$INSBASE
 10
0.0
 20
0.0
 30
0.0
  9
$EXTMIN
 10
-472.30013439818464
 20
-441.71345091577047
 30
0.0
  9
$EXTMAX
 10
395.35500645628673
 20
458.68343069122824
 30
0.0
  9
$LIMMIN
 10
-499.41435754988686
 20
-469.85085346598919
  9
$LIMMAX
 10
422.46922960798895
 20
486.82083324144696
  9
$ORTHOMODE
 70
               0
  9
$REGENMODE
 70
               1
  9
$FILLMODE
 70
               1
  9
$QTEXTMODE
 70
               0
  9
$MIRRTEXT
 70
               1
  9
$DRAGMODE
 70
               2
  9
$LTSCALE
 40
1.0
  9
$OSMODE
 70
               0
  9
$ATTMODE
 70
               1
  9
$TEXTSIZE
 40
0.2
  9
$TRACEWID
 40
0.05
  9
$TEXTSTYLE
  7
STANDARD
  9
$CLAYER
  8
0
  9
$CELTYPE
  6
CONTINUOUS
  9
$CECOLOR
 62
             256
  9
$DIMSCALE
 40
1.0
  9
$DIMASZ
 40
0.18
  9
$DIMEXO
 40
0.0625
  9
$DIMDLI
 40
0.38
  9
$DIMRND
 40
0.0
  9
$DIMDLE
 40
0.0
  9
$DIMEXE
 40
0.18
  9
$DIMTP
 40
0.0
  9
$DIMTM
 40
0.0
  9
$DIMTXT
 40
0.18
  9
$DIMCEN
 40
0.09
  9
$DIMTSZ
 40
0.0
  9
$DIMTOL
 70
               0
  9
$DIMLIM
 70
               0
  9
$DIMTIH
 70
               1
  9
$DIMTOH
 70
               1
  9
$DIMSE1
 70
               0
  9
$DIMSE2
 70
               0
  9
$DIMTAD
 70
               0
  9
$DIMZIN
 70
               0
  9
$DIMBLK
  1

  9
$DIMASO
 70
               1
  9
$DIMSHO
 70
               1
  9
$DIMPOST
  1

  9
$DIMAPOST
  1

  9
$DIMALT
 70
               0
  9
$DIMALTD
 70
               2
  9
$DIMALTF
 40
25.399999999999999
  9
$DIMLFAC
 40
1.0
  9
$DIMTOFL
 70
               0
  9
$DIMTVP
 40
0.0
  9
$DIMTIX
 70
               0
  9
$DIMSOXD
 70
               0
  9
$DIMSAH
 70
               0
  9
$DIMBLK1
  1

  9
$DIMBLK2
  1

  9
$DIMSTYLE
  2
STANDARD
  9
$DIMCLRD
 70
               0
  9
$DIMCLRE
 70
               0
  9
$DIMCLRT
 70
               0
  9
$DIMTFAC
 40
1.0
  9
$DIMGAP
 40
0.09
  9
$LUNITS
 70
               2
  9
$LUPREC
 70
               4
  9
$AXISMODE
 70
               0
  9
$AXISUNIT
 10
0.0
 20
0.0
  9
$SKETCHINC
 40
0.1
  9
$FILLETRAD
 40
0.0
  9
$AUNITS
 70
               0
  9
$AUPREC
 70
               0
  9
$MENU
  1
acad
  9
$ELEVATION
 40
0.0
  9
$PELEVATION
 40
0.0
  9
$THICKNESS
 40
0.0
  9
$LIMCHECK
 70
               0
  9
$BLIPMODE
 70
               1
  9
$CHAMFERA
 40
0.0
  9
$CHAMFERB
 40
0.0
  9
$SKPOLY
 70
               0
  9
$TDCREATE
 40
0.000000000
  9
$TDUPDATE
 40
0.000000000
  9
$TDINDWG
 40
0.0000000000
  9
$TDUSRTIMER
 40
0.0000000000
  9
$USRTIMER
 70
               1
  9
$ANGBASE
 50
0.0
  9
$ANGDIR
 70
               0
  9
$PDMODE
 70
               0
  9
$PDSIZE
 40
1.0
  9
$PLINEWID
 40
0.0
  9
$COORDS
 70
               1
  9
$SPLFRAME
 70
               0
  9
$SPLINETYPE
 70
               6
  9
$SPLINESEGS
 70
               8
  9
$ATTDIA
 70
               0
  9
$ATTREQ
 70
               1
  9
$HANDLING
 70
               1
  9
$HANDSEED
  5
36C
  9
$SURFTAB1
 70
               6
  9
$SURFTAB2
 70
               6
  9
$SURFTYPE
 70
               6
  9
$SURFU
 70
               6
  9
$SURFV
 70
               6
  9
$UCSNAME
  2

  9
$UCSORG
 10
0.0
 20
0.0
 30
0.0
  9
$UCSXDIR
 10
1.0
 20
0.0
 30
0.0
  9
$UCSYDIR
 10
0.0
 20
1.0
 30
0.0
  9
$PUCSNAME
  2

  9
$PUCSORG
 10
0.0
 20
0.0
 30
0.0
  9
$PUCSXDIR
 10
1.0
 20
0.0
 30
0.0
  9
$PUCSYDIR
 10
0.0
 20
1.0
 30
0.0
  9
$USERI1
 70
               0
  9
$USERI2
 70
               0
  9
$USERI3
 70
               0
  9
$USERI4
 70
               0
  9
$USERI5
 70
               0
  9
$USERR1
 40
0.0
  9
$USERR2
 40
0.0
  9
$USERR3
 40
0.0
  9
$USERR4
 40
0.0
  9
$USERR5
 40
0.0
  9
$WORLDVIEW
 70
               1
  9
$SHADEDGE
 70
               3
  9
$SHADEDIF
 70
              70
  9
$TILEMODE
 70
               1
  9
$MAXACTVP
 70
              16
  9
$PINSBASE
 10
0.0
 20
0.0
 30
0.0
  9
$PLIMCHECK
 70
               0
  9
$PEXTMIN
 10
1.0000000000000000E+20
 20
1.0000000000000000E+20
 30
1.0000000000000000E+20
  9
$PEXTMAX
 10
-1.0000000000000000E+20
 20
-1.0000000000000000E+20
 30
-1.0000000000000000E+20
  9
$PLIMMIN
 10
0.0
 20
0.0
  9
$PLIMMAX
 10
12.0
 20
9.0
  9
$UNITMODE
 70
               0
  9
$VISRETAIN
 70
               0
  9
$PLINEGEN
 70
               1
  9
$PSLTSCALE
 70
               0
  9
$TREEDEPTH
 70
            3020
  9
$DWGCODEPAGE
  3
dos932
  0
ENDSEC
  0
SECTION
  2
TABLES
  0
TABLE
  2
VPORT
 70
               1
  0
VPORT
  2
*ACTIVE
 70
               0
 10
0.0
 20
0.0
 11
1.0
 21
1.0
 12
-38.472563970948954
 22
8.4849898877288865
 13
0.0
 23
0.0
 14
1.0
 24
1.0
 15
0.0
 25
0.0
 16
0.0
 26
0.0
 36
1.0
 17
0.0
 27
0.0
 37
0.0
 40
956.67168670743615
 41
0.9636363236908473
 42
50.0
 43
0.0
 44
0.0
 50
0.0
 51
0.0
 71
               0
 72
             100
 73
               1
 74
               1
 75
               0
 76
               0
 77
               0
 78
               0
  0
ENDTAB
  0
TABLE
  2
LTYPE
 70
              26
  0
LTYPE
  2
CONTINUOUS
 70
               0
  3
Solid line
 72
              65
 73
               0
 40
0.0
  0
LTYPE
  2
HIDDENX2
 70
               0
  3
CADPAC FUSION LINETYPE
 72
              65
 73
               2
 40
58.240000000000002
 49
43.68
 49
-14.56
  0
LTYPE
  2
HIDDEN
 70
               0
  3
CADPAC FUSION LINETYPE
 72
              65
 73
               2
 40
43.68
 49
29.120000000000001
 49
-14.56
  0
LTYPE
  2
HIDDEN2
 70
               0
  3
CADPAC FUSION LINETYPE
 72
              65
 73
               2
 40
36.399999999999999
 49
21.84
 49
-14.56
  0
LTYPE
  2
DASHED
 70
               0
  3
CADPAC FUSION LINETYPE
 72
              65
 73
               2
 40
43.68
 49
29.120000000000001
 49
-14.56
  0
LTYPE
  2
DASHED2
 70
               0
  3
CADPAC FUSION LINETYPE
 72
              65
 73
               2
 40
32.759999999999998
 49
21.84
 49
-10.92
  0
LTYPE
  2
DASHEDX2
 70
               0
  3
CADPAC FUSION LINETYPE
 72
              65
 73
               2
 40
65.519999999999996
 49
43.68
 49
-21.84
  0
LTYPE
  2
DOTX2
 70
               0
  3
CADPAC FUSION LINETYPE
 72
              65
 73
               2
 40
18.199999999999999
 49
0.0
 49
-18.199999999999999
  0
LTYPE
  2
DOT
 70
               0
  3
CADPAC FUSION LINETYPE
 72
              65
 73
               2
 40
14.56
 49
0.0
 49
-14.56
  0
LTYPE
  2
DOTS
 70
               0
  3
CADPAC FUSION LINETYPE
 72
              65
 73
               2
 40
14.56
 49
0.0
 49
-14.56
  0
LTYPE
  2
DOT2
 70
               0
  3
CADPAC FUSION LINETYPE
 72
              65
 73
               2
 40
10.92
 49
0.0
 49
-10.92
  0
LTYPE
  2
CENTERX2
 70
               0
  3
CADPAC FUSION LINETYPE
 72
              65
 73
               4
 40
87.359999999999985
 49
36.399999999999999
 49
-18.199999999999999
 49
14.56
 49
-18.199999999999999
  0
LTYPE
  2
CENTER
 70
               0
  3
CADPAC FUSION LINETYPE
 72
              65
 73
               4
 40
66.975999999999999
 49
29.120000000000001
 49
-14.56
 49
8.7360000000000007
 49
-14.56
  0
LTYPE
  2
CENTER2
 70
               0
  3
CADPAC FUSION LINETYPE
 72
              65
 73
               4
 40
46.591999999999999
 49
21.84
 49
-10.92
 49
2.9120000000000004
 49
-10.92
  0
LTYPE
  2
DASHDOTX2
 70
               0
  3
CADPAC FUSION LINETYPE
 72
              65
 73
               4
 40
72.799999999999997
 49
36.399999999999999
 49
-18.199999999999999
 49
0.0
 49
-18.199999999999999
  0
LTYPE
  2
DASHDOT
 70
               0
  3
CADPAC FUSION LINETYPE
 72
              65
 73
               4
 40
58.240000000000002
 49
29.120000000000001
 49
-14.56
 49
0.0
 49
-14.56
  0
LTYPE
  2
DASHDOT2
 70
               0
  3
CADPAC FUSION LINETYPE
 72
              65
 73
               4
 40
43.68
 49
21.84
 49
-10.92
 49
0.0
 49
-10.92
  0
LTYPE
  2
DIVIDEX2
 70
               0
  3
CADPAC FUSION LINETYPE
 72
              65
 73
               6
 40
91.0
 49
36.399999999999999
 49
-18.199999999999999
 49
0.0
 49
-18.199999999999999
 49
0.0
 49
-18.199999999999999
  0
LTYPE
  2
DIVIDE
 70
               0
  3
CADPAC FUSION LINETYPE
 72
              65
 73
               6
 40
72.799999999999997
 49
29.120000000000001
 49
-14.56
 49
0.0
 49
-14.56
 49
0.0
 49
-14.56
  0
LTYPE
  2
DIVIDE2
 70
               0
  3
CADPAC FUSION LINETYPE
 72
              65
 73
               6
 40
54.600000000000001
 49
21.84
 49
-10.92
 49
0.0
 49
-10.92
 49
0.0
 49
-10.92
  0
LTYPE
  2
BORDERX2
 70
               0
  3
CADPAC FUSION LINETYPE
 72
              65
 73
               6
 40
127.39999999999999
 49
36.399999999999999
 49
-18.199999999999999
 49
36.399999999999999
 49
-18.199999999999999
 49
0.0
 49
-18.199999999999999
  0
LTYPE
  2
BORDER
 70
               0
  3
CADPAC FUSION LINETYPE
 72
              65
 73
               6
 40
101.92
 49
29.120000000000001
 49
-14.56
 49
29.120000000000001
 49
-14.56
 49
0.0
 49
-14.56
  0
LTYPE
  2
BORDER2
 70
               0
  3
CADPAC FUSION LINETYPE
 72
              65
 73
               6
 40
76.439999999999998
 49
21.84
 49
-10.92
 49
21.84
 49
-10.92
 49
0.0
 49
-10.92
  0
LTYPE
  2
PHANTOMX2
 70
               0
  3
CADPAC FUSION LINETYPE
 72
              65
 73
               6
 40
109.2
 49
36.399999999999999
 49
-14.56
 49
14.56
 49
-14.56
 49
14.56
 49
-14.56
  0
LTYPE
  2
PHANTOM
 70
               0
  3
CADPAC FUSION LINETYPE
 72
              65
 73
               6
 40
90.271999999999991
 49
29.120000000000001
 49
-14.56
 49
8.7360000000000007
 49
-14.56
 49
8.7360000000000007
 49
-14.56
  0
LTYPE
  2
PHANTOM2
 70
               0
  3
CADPAC FUSION LINETYPE
 72
              65
 73
               6
 40
77.168000000000006
 49
21.84
 49
-14.56
 49
5.8240000000000007
 49
-14.56
 49
5.8240000000000007
 49
-14.56
  0
ENDTAB
  0
TABLE
  2
LAYER
 70
             256
  0
LAYER
  2
0
 70
               0
 62
               7
  6
CONTINUOUS
  0
LAYER
  2
LAYER001
 70
               0
 62
               7
  6
CONTINUOUS
  0
LAYER
  2
LAYER002
 70
               0
 62
               7
  6
CONTINUOUS
  0
LAYER
  2
LAYER003
 70
               0
 62
               7
  6
CONTINUOUS
  0
LAYER
  2
LAYER004
 70
               0
 62
               7
  6
CONTINUOUS
  0
LAYER
  2
LAYER005
 70
               0
 62
               7
  6
CONTINUOUS
  0
LAYER
  2
LAYER006
 70
               0
 62
               7
  6
CONTINUOUS
  0
LAYER
  2
LAYER007
 70
               0
 62
               7
  6
CONTINUOUS
  0
LAYER
  2
LAYER008
 70
               0
 62
               7
  6
CONTINUOUS
  0
LAYER
  2
LAYER009
 70
               0
 62
               7
  6
CONTINUOUS
  0
LAYER
  2
LAYER010
 70
               0
 62
               7
  6
CONTINUOUS
  0
LAYER
  2
LAYER011
 70
               0
 62
               7
  6
CONTINUOUS
  0
LAYER
  2
LAYER012
 70
               0
 62
               7
  6
CONTINUOUS
  0
LAYER
  2
LAYER013
 70
               0
 62
               7
  6
CONTINUOUS
  0
LAYER
  2
LAYER014
 70
               0
 62
               7
  6
CONTINUOUS
  0
LAYER
  2
LAYER015
 70
               0
 62
               7
  6
CONTINUOUS
  0
LAYER
  2
LAYER016
 70
               0
 62
               7
  6
CONTINUOUS
  0
LAYER
  2
LAYER017
 70
               0
 62
               7
  6
CONTINUOUS
  0
LAYER
  2
LAYER018
 70
               0
 62
               7
  6
CONTINUOUS
  0
LAYER
  2
LAYER019
 70
               0
 62
               7
  6
CONTINUOUS
  0
LAYER
  2
LAYER020
 70
               0
 62
               7
  6
CONTINUOUS
  0
LAYER
  2
LAYER021
 70
               0
 62
               7
  6
CONTINUOUS
  0
LAYER
  2
LAYER022
 70
               0
 62
               7
  6
CONTINUOUS
  0
LAYER
  2
LAYER023
 70
               0
 62
               7
  6
CONTINUOUS
  0
LAYER
  2
LAYER024
 70
               0
 62
               7
  6
CONTINUOUS
  0
LAYER
  2
LAYER025
 70
               0
 62
               7
  6
CONTINUOUS
  0
LAYER
  2
LAYER026
 70
               0
 62
               7
  6
CONTINUOUS
  0
LAYER
  2
LAYER027
 70
               0
 62
               7
  6
CONTINUOUS
  0
LAYER
  2
LAYER028
 70
               0
 62
               7
  6
CONTINUOUS
  0
LAYER
  2
LAYER029
 70
               0
 62
               7
  6
CONTINUOUS
  0
LAYER
  2
LAYER030
 70
               0
 62
               7
  6
CONTINUOUS
  0
LAYER
  2
LAYER031
 70
               0
 62
               7
  6
CONTINUOUS
  0
LAYER
  2
LAYER032
 70
               0
 62
               7
  6
CONTINUOUS
  0
LAYER
  2
LAYER033
 70
               0
 62
               7
  6
CONTINUOUS
  0
LAYER
  2
LAYER034
 70
               0
 62
               7
  6
CONTINUOUS
  0
LAYER
  2
LAYER035
 70
               0
 62
               7
  6
CONTINUOUS
  0
LAYER
  2
LAYER036
 70
               0
 62
               7
  6
CONTINUOUS
  0
LAYER
  2
LAYER037
 70
               0
 62
               7
  6
CONTINUOUS
  0
LAYER
  2
LAYER038
 70
               0
 62
               7
  6
CONTINUOUS
  0
LAYER
  2
LAYER039
 70
               0
 62
               7
  6
CONTINUOUS
  0
LAYER
  2
LAYER040
 70
               0
 62
               7
  6
CONTINUOUS
  0
LAYER
  2
LAYER041
 70
               0
 62
               7
  6
CONTINUOUS
  0
LAYER
  2
LAYER042
 70
               0
 62
               7
  6
CONTINUOUS
  0
LAYER
  2
LAYER043
 70
               0
 62
               7
  6
CONTINUOUS
  0
LAYER
  2
LAYER044
 70
               0
 62
               7
  6
CONTINUOUS
  0
LAYER
  2
LAYER045
 70
               0
 62
               7
  6
CONTINUOUS
  0
LAYER
  2
LAYER046
 70
               0
 62
               7
  6
CONTINUOUS
  0
LAYER
  2
LAYER047
 70
               0
 62
               7
  6
CONTINUOUS
  0
LAYER
  2
LAYER048
 70
               0
 62
               7
  6
CONTINUOUS
  0
LAYER
  2
LAYER049
 70
               0
 62
               7
  6
CONTINUOUS
  0
LAYER
  2
LAYER050
 70
               0
 62
               7
  6
CONTINUOUS
  0
LAYER
  2
LAYER051
 70
               0
 62
               7
  6
CONTINUOUS
  0
LAYER
  2
LAYER052
 70
               0
 62
               7
  6
CONTINUOUS
  0
LAYER
  2
LAYER053
 70
               0
 62
               7
  6
CONTINUOUS
  0
LAYER
  2
LAYER054
 70
               0
 62
               7
  6
CONTINUOUS
  0
LAYER
  2
LAYER055
 70
               0
 62
               7
  6
CONTINUOUS
  0
LAYER
  2
LAYER056
 70
               0
 62
               7
  6
CONTINUOUS
  0
LAYER
  2
LAYER057
 70
               0
 62
               7
  6
CONTINUOUS
  0
LAYER
  2
LAYER058
 70
               0
 62
               7
  6
CONTINUOUS
  0
LAYER
  2
LAYER059
 70
               0
 62
               7
  6
CONTINUOUS
  0
LAYER
  2
LAYER060
 70
               0
 62
               7
  6
CONTINUOUS
  0
LAYER
  2
LAYER061
 70
               0
 62
               7
  6
CONTINUOUS
  0
LAYER
  2
LAYER062
 70
               0
 62
               7
  6
CONTINUOUS
  0
LAYER
  2
LAYER063
 70
               0
 62
               7
  6
CONTINUOUS
  0
LAYER
  2
LAYER064
 70
               0
 62
               7
  6
CONTINUOUS
  0
LAYER
  2
LAYER065
 70
               0
 62
               7
  6
CONTINUOUS
  0
LAYER
  2
LAYER066
 70
               0
 62
               7
  6
CONTINUOUS
  0
LAYER
  2
LAYER067
 70
               0
 62
               7
  6
CONTINUOUS
  0
LAYER
  2
LAYER068
 70
               0
 62
               7
  6
CONTINUOUS
  0
LAYER
  2
LAYER069
 70
               0
 62
               7
  6
CONTINUOUS
  0
LAYER
  2
LAYER070
 70
               0
 62
               7
  6
CONTINUOUS
  0
LAYER
  2
LAYER071
 70
               0
 62
               7
  6
CONTINUOUS
  0
LAYER
  2
LAYER072
 70
               0
 62
               7
  6
CONTINUOUS
  0
LAYER
  2
LAYER073
 70
               0
 62
               7
  6
CONTINUOUS
  0
LAYER
  2
LAYER074
 70
               0
 62
               7
  6
CONTINUOUS
  0
LAYER
  2
LAYER075
 70
               0
 62
               7
  6
CONTINUOUS
  0
LAYER
  2
LAYER076
 70
               0
 62
               7
  6
CONTINUOUS
  0
LAYER
  2
LAYER077
 70
               0
 62
               7
  6
CONTINUOUS
  0
LAYER
  2
LAYER078
 70
               0
 62
               7
  6
CONTINUOUS
  0
LAYER
  2
LAYER079
 70
               0
 62
               7
  6
CONTINUOUS
  0
LAYER
  2
LAYER080
 70
               0
 62
               7
  6
CONTINUOUS
  0
LAYER
  2
LAYER081
 70
               0
 62
               7
  6
CONTINUOUS
  0
LAYER
  2
LAYER082
 70
               0
 62
               7
  6
CONTINUOUS
  0
LAYER
  2
LAYER083
 70
               0
 62
               7
  6
CONTINUOUS
  0
LAYER
  2
LAYER084
 70
               0
 62
               7
  6
CONTINUOUS
  0
LAYER
  2
LAYER085
 70
               0
 62
               7
  6
CONTINUOUS
  0
LAYER
  2
LAYER086
 70
               0
 62
               7
  6
CONTINUOUS
  0
LAYER
  2
LAYER087
 70
               0
 62
               7
  6
CONTINUOUS
  0
LAYER
  2
LAYER088
 70
               0
 62
               7
  6
CONTINUOUS
  0
LAYER
  2
LAYER089
 70
               0
 62
               7
  6
CONTINUOUS
  0
LAYER
  2
LAYER090
 70
               0
 62
               7
  6
CONTINUOUS
  0
LAYER
  2
LAYER091
 70
               0
 62
               7
  6
CONTINUOUS
  0
LAYER
  2
LAYER092
 70
               0
 62
               7
  6
CONTINUOUS
  0
LAYER
  2
LAYER093
 70
               0
 62
               7
  6
CONTINUOUS
  0
LAYER
  2
LAYER094
 70
               0
 62
               7
  6
CONTINUOUS
  0
LAYER
  2
LAYER095
 70
               0
 62
               7
  6
CONTINUOUS
  0
LAYER
  2
LAYER096
 70
               0
 62
               7
  6
CONTINUOUS
  0
LAYER
  2
LAYER097
 70
               0
 62
               7
  6
CONTINUOUS
  0
LAYER
  2
LAYER098
 70
               0
 62
               7
  6
CONTINUOUS
  0
LAYER
  2
LAYER099
 70
               0
 62
               7
  6
CONTINUOUS
  0
LAYER
  2
LAYER100
 70
               0
 62
               7
  6
CONTINUOUS
  0
LAYER
  2
LAYER101
 70
               0
 62
               7
  6
CONTINUOUS
  0
LAYER
  2
LAYER102
 70
               0
 62
               7
  6
CONTINUOUS
  0
LAYER
  2
LAYER103
 70
               0
 62
               7
  6
CONTINUOUS
  0
LAYER
  2
LAYER104
 70
               0
 62
               7
  6
CONTINUOUS
  0
LAYER
  2
LAYER105
 70
               0
 62
               7
  6
CONTINUOUS
  0
LAYER
  2
LAYER106
 70
               0
 62
               7
  6
CONTINUOUS
  0
LAYER
  2
LAYER107
 70
               0
 62
               7
  6
CONTINUOUS
  0
LAYER
  2
LAYER108
 70
               0
 62
               7
  6
CONTINUOUS
  0
LAYER
  2
LAYER109
 70
               0
 62
               7
  6
CONTINUOUS
  0
LAYER
  2
LAYER110
 70
               0
 62
               7
  6
CONTINUOUS
  0
LAYER
  2
LAYER111
 70
               0
 62
               7
  6
CONTINUOUS
  0
LAYER
  2
LAYER112
 70
               0
 62
               7
  6
CONTINUOUS
  0
LAYER
  2
LAYER113
 70
               0
 62
               7
  6
CONTINUOUS
  0
LAYER
  2
LAYER114
 70
               0
 62
               7
  6
CONTINUOUS
  0
LAYER
  2
LAYER115
 70
               0
 62
               7
  6
CONTINUOUS
  0
LAYER
  2
LAYER116
 70
               0
 62
               7
  6
CONTINUOUS
  0
LAYER
  2
LAYER117
 70
               0
 62
               7
  6
CONTINUOUS
  0
LAYER
  2
LAYER118
 70
               0
 62
               7
  6
CONTINUOUS
  0
LAYER
  2
LAYER119
 70
               0
 62
               7
  6
CONTINUOUS
  0
LAYER
  2
LAYER120
 70
               0
 62
               7
  6
CONTINUOUS
  0
LAYER
  2
LAYER121
 70
               0
 62
               7
  6
CONTINUOUS
  0
LAYER
  2
LAYER122
 70
               0
 62
               7
  6
CONTINUOUS
  0
LAYER
  2
LAYER123
 70
               0
 62
               7
  6
CONTINUOUS
  0
LAYER
  2
LAYER124
 70
               0
 62
               7
  6
CONTINUOUS
  0
LAYER
  2
LAYER125
 70
               0
 62
               7
  6
CONTINUOUS
  0
LAYER
  2
LAYER126
 70
               0
 62
               7
  6
CONTINUOUS
  0
LAYER
  2
LAYER127
 70
               0
 62
               7
  6
CONTINUOUS
  0
LAYER
  2
LAYER128
 70
               0
 62
               7
  6
CONTINUOUS
  0
LAYER
  2
LAYER129
 70
               0
 62
               7
  6
CONTINUOUS
  0
LAYER
  2
LAYER130
 70
               0
 62
               7
  6
CONTINUOUS
  0
LAYER
  2
LAYER131
 70
               0
 62
               7
  6
CONTINUOUS
  0
LAYER
  2
LAYER132
 70
               0
 62
               7
  6
CONTINUOUS
  0
LAYER
  2
LAYER133
 70
               0
 62
               7
  6
CONTINUOUS
  0
LAYER
  2
LAYER134
 70
               0
 62
               7
  6
CONTINUOUS
  0
LAYER
  2
LAYER135
 70
               0
 62
               7
  6
CONTINUOUS
  0
LAYER
  2
LAYER136
 70
               0
 62
               7
  6
CONTINUOUS
  0
LAYER
  2
LAYER137
 70
               0
 62
               7
  6
CONTINUOUS
  0
LAYER
  2
LAYER138
 70
               0
 62
               7
  6
CONTINUOUS
  0
LAYER
  2
LAYER139
 70
               0
 62
               7
  6
CONTINUOUS
  0
LAYER
  2
LAYER140
 70
               0
 62
               7
  6
CONTINUOUS
  0
LAYER
  2
LAYER141
 70
               0
 62
               7
  6
CONTINUOUS
  0
LAYER
  2
LAYER142
 70
               0
 62
               7
  6
CONTINUOUS
  0
LAYER
  2
LAYER143
 70
               0
 62
               7
  6
CONTINUOUS
  0
LAYER
  2
LAYER144
 70
               0
 62
               7
  6
CONTINUOUS
  0
LAYER
  2
LAYER145
 70
               0
 62
               7
  6
CONTINUOUS
  0
LAYER
  2
LAYER146
 70
               0
 62
               7
  6
CONTINUOUS
  0
LAYER
  2
LAYER147
 70
               0
 62
               7
  6
CONTINUOUS
  0
LAYER
  2
LAYER148
 70
               0
 62
               7
  6
CONTINUOUS
  0
LAYER
  2
LAYER149
 70
               0
 62
               7
  6
CONTINUOUS
  0
LAYER
  2
LAYER150
 70
               0
 62
               7
  6
CONTINUOUS
  0
LAYER
  2
LAYER151
 70
               0
 62
               7
  6
CONTINUOUS
  0
LAYER
  2
LAYER152
 70
               0
 62
               7
  6
CONTINUOUS
  0
LAYER
  2
LAYER153
 70
               0
 62
               7
  6
CONTINUOUS
  0
LAYER
  2
LAYER154
 70
               0
 62
               7
  6
CONTINUOUS
  0
LAYER
  2
LAYER155
 70
               0
 62
               7
  6
CONTINUOUS
  0
LAYER
  2
LAYER156
 70
               0
 62
               7
  6
CONTINUOUS
  0
LAYER
  2
LAYER157
 70
               0
 62
               7
  6
CONTINUOUS
  0
LAYER
  2
LAYER158
 70
               0
 62
               7
  6
CONTINUOUS
  0
LAYER
  2
LAYER159
 70
               0
 62
               7
  6
CONTINUOUS
  0
LAYER
  2
LAYER160
 70
               0
 62
               7
  6
CONTINUOUS
  0
LAYER
  2
LAYER161
 70
               0
 62
               7
  6
CONTINUOUS
  0
LAYER
  2
LAYER162
 70
               0
 62
               7
  6
CONTINUOUS
  0
LAYER
  2
LAYER163
 70
               0
 62
               7
  6
CONTINUOUS
  0
LAYER
  2
LAYER164
 70
               0
 62
               7
  6
CONTINUOUS
  0
LAYER
  2
LAYER165
 70
               0
 62
               7
  6
CONTINUOUS
  0
LAYER
  2
LAYER166
 70
               0
 62
               7
  6
CONTINUOUS
  0
LAYER
  2
LAYER167
 70
               0
 62
               7
  6
CONTINUOUS
  0
LAYER
  2
LAYER168
 70
               0
 62
               7
  6
CONTINUOUS
  0
LAYER
  2
LAYER169
 70
               0
 62
               7
  6
CONTINUOUS
  0
LAYER
  2
LAYER170
 70
               0
 62
               7
  6
CONTINUOUS
  0
LAYER
  2
LAYER171
 70
               0
 62
               7
  6
CONTINUOUS
  0
LAYER
  2
LAYER172
 70
               0
 62
               7
  6
CONTINUOUS
  0
LAYER
  2
LAYER173
 70
               0
 62
               7
  6
CONTINUOUS
  0
LAYER
  2
LAYER174
 70
               0
 62
               7
  6
CONTINUOUS
  0
LAYER
  2
LAYER175
 70
               0
 62
               7
  6
CONTINUOUS
  0
LAYER
  2
LAYER176
 70
               0
 62
               7
  6
CONTINUOUS
  0
LAYER
  2
LAYER177
 70
               0
 62
               7
  6
CONTINUOUS
  0
LAYER
  2
LAYER178
 70
               0
 62
               7
  6
CONTINUOUS
  0
LAYER
  2
LAYER179
 70
               0
 62
               7
  6
CONTINUOUS
  0
LAYER
  2
LAYER180
 70
               0
 62
               7
  6
CONTINUOUS
  0
LAYER
  2
LAYER181
 70
               0
 62
               7
  6
CONTINUOUS
  0
LAYER
  2
LAYER182
 70
               0
 62
               7
  6
CONTINUOUS
  0
LAYER
  2
LAYER183
 70
               0
 62
               7
  6
CONTINUOUS
  0
LAYER
  2
LAYER184
 70
               0
 62
               7
  6
CONTINUOUS
  0
LAYER
  2
LAYER185
 70
               0
 62
               7
  6
CONTINUOUS
  0
LAYER
  2
LAYER186
 70
               0
 62
               7
  6
CONTINUOUS
  0
LAYER
  2
LAYER187
 70
               0
 62
               7
  6
CONTINUOUS
  0
LAYER
  2
LAYER188
 70
               0
 62
               7
  6
CONTINUOUS
  0
LAYER
  2
LAYER189
 70
               0
 62
               7
  6
CONTINUOUS
  0
LAYER
  2
LAYER190
 70
               0
 62
               7
  6
CONTINUOUS
  0
LAYER
  2
LAYER191
 70
               0
 62
               7
  6
CONTINUOUS
  0
LAYER
  2
LAYER192
 70
               0
 62
               7
  6
CONTINUOUS
  0
LAYER
  2
LAYER193
 70
               0
 62
               7
  6
CONTINUOUS
  0
LAYER
  2
LAYER194
 70
               0
 62
               7
  6
CONTINUOUS
  0
LAYER
  2
LAYER195
 70
               0
 62
               7
  6
CONTINUOUS
  0
LAYER
  2
LAYER196
 70
               0
 62
               7
  6
CONTINUOUS
  0
LAYER
  2
LAYER197
 70
               0
 62
               7
  6
CONTINUOUS
  0
LAYER
  2
LAYER198
 70
               0
 62
               7
  6
CONTINUOUS
  0
LAYER
  2
LAYER199
 70
               0
 62
               7
  6
CONTINUOUS
  0
LAYER
  2
LAYER200
 70
               0
 62
               7
  6
CONTINUOUS
  0
LAYER
  2
LAYER201
 70
               0
 62
               7
  6
CONTINUOUS
  0
LAYER
  2
LAYER202
 70
               0
 62
               7
  6
CONTINUOUS
  0
LAYER
  2
LAYER203
 70
               0
 62
               7
  6
CONTINUOUS
  0
LAYER
  2
LAYER204
 70
               0
 62
               7
  6
CONTINUOUS
  0
LAYER
  2
LAYER205
 70
               0
 62
               7
  6
CONTINUOUS
  0
LAYER
  2
LAYER206
 70
               0
 62
               7
  6
CONTINUOUS
  0
LAYER
  2
LAYER207
 70
               0
 62
               7
  6
CONTINUOUS
  0
LAYER
  2
LAYER208
 70
               0
 62
               7
  6
CONTINUOUS
  0
LAYER
  2
LAYER209
 70
               0
 62
               7
  6
CONTINUOUS
  0
LAYER
  2
LAYER210
 70
               0
 62
               7
  6
CONTINUOUS
  0
LAYER
  2
LAYER211
 70
               0
 62
               7
  6
CONTINUOUS
  0
LAYER
  2
LAYER212
 70
               0
 62
               7
  6
CONTINUOUS
  0
LAYER
  2
LAYER213
 70
               0
 62
               7
  6
CONTINUOUS
  0
LAYER
  2
LAYER214
 70
               0
 62
               7
  6
CONTINUOUS
  0
LAYER
  2
LAYER215
 70
               0
 62
               7
  6
CONTINUOUS
  0
LAYER
  2
LAYER216
 70
               0
 62
               7
  6
CONTINUOUS
  0
LAYER
  2
LAYER217
 70
               0
 62
               7
  6
CONTINUOUS
  0
LAYER
  2
LAYER218
 70
               0
 62
               7
  6
CONTINUOUS
  0
LAYER
  2
LAYER219
 70
               0
 62
               7
  6
CONTINUOUS
  0
LAYER
  2
LAYER220
 70
               0
 62
               7
  6
CONTINUOUS
  0
LAYER
  2
LAYER221
 70
               0
 62
               7
  6
CONTINUOUS
  0
LAYER
  2
LAYER222
 70
               0
 62
               7
  6
CONTINUOUS
  0
LAYER
  2
LAYER223
 70
               0
 62
               7
  6
CONTINUOUS
  0
LAYER
  2
LAYER224
 70
               0
 62
               7
  6
CONTINUOUS
  0
LAYER
  2
LAYER225
 70
               0
 62
               7
  6
CONTINUOUS
  0
LAYER
  2
LAYER226
 70
               0
 62
               7
  6
CONTINUOUS
  0
LAYER
  2
LAYER227
 70
               0
 62
               7
  6
CONTINUOUS
  0
LAYER
  2
LAYER228
 70
               0
 62
               7
  6
CONTINUOUS
  0
LAYER
  2
LAYER229
 70
               0
 62
               7
  6
CONTINUOUS
  0
LAYER
  2
LAYER230
 70
               0
 62
               7
  6
CONTINUOUS
  0
LAYER
  2
LAYER231
 70
               0
 62
               7
  6
CONTINUOUS
  0
LAYER
  2
LAYER232
 70
               0
 62
               7
  6
CONTINUOUS
  0
LAYER
  2
LAYER233
 70
               0
 62
               7
  6
CONTINUOUS
  0
LAYER
  2
LAYER234
 70
               0
 62
               7
  6
CONTINUOUS
  0
LAYER
  2
LAYER235
 70
               0
 62
               7
  6
CONTINUOUS
  0
LAYER
  2
LAYER236
 70
               0
 62
               7
  6
CONTINUOUS
  0
LAYER
  2
LAYER237
 70
               0
 62
               7
  6
CONTINUOUS
  0
LAYER
  2
LAYER238
 70
               0
 62
               7
  6
CONTINUOUS
  0
LAYER
  2
LAYER239
 70
               0
 62
               7
  6
CONTINUOUS
  0
LAYER
  2
LAYER240
 70
               0
 62
               7
  6
CONTINUOUS
  0
LAYER
  2
LAYER241
 70
               0
 62
               7
  6
CONTINUOUS
  0
LAYER
  2
LAYER242
 70
               0
 62
               7
  6
CONTINUOUS
  0
LAYER
  2
LAYER243
 70
               0
 62
               7
  6
CONTINUOUS
  0
LAYER
  2
LAYER244
 70
               0
 62
               7
  6
CONTINUOUS
  0
LAYER
  2
LAYER245
 70
               0
 62
               7
  6
CONTINUOUS
  0
LAYER
  2
LAYER246
 70
               0
 62
               7
  6
CONTINUOUS
  0
LAYER
  2
LAYER247
 70
               0
 62
               7
  6
CONTINUOUS
  0
LAYER
  2
LAYER248
 70
               0
 62
               7
  6
CONTINUOUS
  0
LAYER
  2
LAYER249
 70
               0
 62
               7
  6
CONTINUOUS
  0
LAYER
  2
LAYER250
 70
               0
 62
               7
  6
CONTINUOUS
  0
LAYER
  2
LAYER251
 70
               0
 62
               7
  6
CONTINUOUS
  0
LAYER
  2
LAYER252
 70
               0
 62
               7
  6
CONTINUOUS
  0
LAYER
  2
LAYER253
 70
               0
 62
               7
  6
CONTINUOUS
  0
LAYER
  2
LAYER254
 70
               0
 62
               7
  6
CONTINUOUS
  0
LAYER
  2
LAYER255
 70
               0
 62
               7
  6
CONTINUOUS
  0
ENDTAB
  0
TABLE
  2
STYLE
 70
               1
  0
STYLE
  2
STANDARD
 70
               0
 40
0.0
 41
1.0
 50
0.0
 71
               0
 42
0.0
  3
txt
  4

  0
ENDTAB
  0
TABLE
  2
VIEW
 70
               0
  0
VIEW
  2
QQQQ
 70
               0
 40
956.67168670743615
 10
-38.472563970948954
 20
8.4849898877288865
 41
921.88358715787581
 11
0.0
 21
0.0
 31
1.0
 12
100.0
 22
100.0
 32
0.0
 42
50.0
 43
0.0
 44
0.0
 50
0.0
 71
               0
  0
ENDTAB
  0
TABLE
  2
UCS
 70
               0
  0
ENDTAB
  0
TABLE
  2
APPID
 70
               1
  0
APPID
  2
ACAD
 70
               0
  0
ENDTAB
  0
TABLE
  2
DIMSTYLE
 70
               1
  0
DIMSTYLE
  2
STANDARD
 70
               0
  3

  4

  5

  6

  7

 40
1.0
 41
0.18
 42
0.0625
 43
0.38
 44
0.18
 45
0.0
 46
0.0
 47
0.0
 48
0.0
140
0.18
141
0.09
142
0.0
143
25.399999999999999
144
1.0
145
0.0
146
1.0
147
0.09
 71
               0
 72
               0
 73
               1
 74
               1
 75
               0
 76
               0
 77
               0
 78
               0
170
               0
171
               2
172
               0
173
               0
174
               0
175
               0
176
               0
177
               0
178
               0
  0
ENDTAB
  0
ENDSEC
  0
SECTION
  2
BLOCKS
  0
ENDSEC
  0
SECTION
  2
ENTITIES
  0
LINE
  8
0
  6
CENTER
 62
               4
  5
136
 10
-331.11445861252173
 20
40.601873730520587
 30
0.0
 11
-331.11445861252173
 21
-372.39812626948162
 31
0.0
  0
ARC
  8
0
  6
CENTER
 62
               4
  5
137
 10
-132.11445861252278
 20
-98.398126269479789
 30
0.0
 40
174.0
 50
179.99999999999935
 51
269.99999999999915
  0
LINE
  8
0
  6
CENTER
 62
               4
  5
138
 10
226.66933067062288
 20
-424.39812626948202
 30
0.0
 11
226.66933067062288
 21
39.551711713558916
 31
0.0
  0
LINE
  8
0
  6
CENTER
 62
               4
  5
139
 10
-351.11445861252173
 20
-272.39812626947946
 30
0.0
 11
378.66933067062382
 21
-272.39812626948151
 31
0.0
  0
LINE
  8
0
  6
CENTER
 62
               4
  5
13A
 10
-331.11445861252173
 20
400.86810604494002
 30
0.0
 11
-331.11445861252173
 21
217.86810604494002
 31
0.0
  0
LINE
  8
0
  6
CENTER
 62
               4
  5
13B
 10
-31.705770053730816
 20
309.36810604493985
 30
0.0
 11
-455.61445861252173
 21
309.36810604493991
 31
0.0
  0
LINE
  8
0
  6
CONTINUOUS
 62
               4
  5
13C
 10
226.66933067062402
 20
-90.398126269482105
 30
0.0
 11
226.49335180818116
 21
-90.413522424966033
 31
0.0
  0
LINE
  8
0
  6
CONTINUOUS
 62
               4
  5
13D
 10
226.66933067062402
 20
-90.398126269482105
 30
0.0
 11
226.84530953306688
 21
-90.413522424966033
 31
0.0
  0
LINE
  8
0
  6
CONTINUOUS
 62
               4
  5
13E
 10
-107.11445861252298
 20
-351.23737298569233
 30
0.0
 11
-110.11445861252304
 21
-360.09418112837665
 31
0.0
  0
LINE
  8
0
  6
CONTINUOUS
 62
               4
  5
13F
 10
-104.11445861252301
 20
-351.23737298569216
 30
0.0
 11
-107.11445861252298
 21
-351.23737298569216
 31
0.0
  0
LINE
  8
0
  6
CONTINUOUS
 62
               4
  5
140
 10
-107.11445861252298
 20
-377.44332816729076
 30
0.0
 11
-110.11445861252304
 21
-375.71127735972186
 31
0.0
  0
LINE
  8
0
  6
CONTINUOUS
 62
               4
  5
141
 10
-107.11445861252298
 20
-351.23737298569216
 30
0.0
 11
-107.11445861252298
 21
-377.44332816729076
 31
0.0
  0
LINE
  8
0
  6
CONTINUOUS
 62
               4
  5
142
 10
-107.11445861252298
 20
-377.44332816729076
 30
0.0
 11
-104.11445861252301
 21
-377.44332816729076
 31
0.0
  0
LINE
  8
0
  6
CONTINUOUS
 62
               4
  5
143
 10
-110.11445861252304
 20
-360.09418112837665
 30
0.0
 11
-110.11445861252304
 21
-375.71127735972186
 31
0.0
  0
LINE
  8
0
  6
CONTINUOUS
 62
               4
  5
144
 10
-107.11445861252301
 20
-189.35292437166933
 30
0.0
 11
-110.11445861252305
 21
-187.62087356410044
 31
0.0
  0
LINE
  8
0
  6
CONTINUOUS
 62
               4
  5
145
 10
-107.11445861252295
 20
-163.14696919007082
 30
0.0
 11
-110.11445861252302
 21
-172.00377733275525
 31
0.0
  0
LINE
  8
0
  6
CONTINUOUS
 62
               4
  5
146
 10
-104.11445861252298
 20
-163.14696919007073
 30
0.0
 11
-107.11445861252295
 21
-163.14696919007068
 31
0.0
  0
LINE
  8
0
  6
CONTINUOUS
 62
               4
  5
147
 10
-107.11445861252295
 20
-163.14696919007068
 30
0.0
 11
-107.11445861252301
 21
-189.35292437166933
 31
0.0
  0
LINE
  8
0
  6
CONTINUOUS
 62
               4
  5
148
 10
-107.11445861252301
 20
-189.35292437166933
 30
0.0
 11
-104.11445861252304
 21
-189.35292437166933
 31
0.0
  0
LINE
  8
0
  6
CONTINUOUS
 62
               4
  5
149
 10
-110.11445861252302
 20
-172.00377733275516
 30
0.0
 11
-110.11445861252305
 21
-187.62087356410044
 31
0.0
  0
LINE
  8
0
  6
CONTINUOUS
 62
               4
  5
14A
 10
-107.11445861252299
 20
392.41330794275052
 30
0.0
 11
-110.11445861252305
 21
394.14535875031942
 31
0.0
  0
LINE
  8
0
  6
CONTINUOUS
 62
               4
  5
14B
 10
-107.11445861252295
 20
418.619263124349
 30
0.0
 11
-110.11445861252302
 21
409.76245498166463
 31
0.0
  0
LINE
  8
0
  6
CONTINUOUS
 62
               4
  5
14C
 10
-104.11445861252298
 20
418.61926312434912
 30
0.0
 11
-107.11445861252295
 21
418.61926312434917
 31
0.0
  0
LINE
  8
0
  6
CONTINUOUS
 62
               4
  5
14D
 10
-107.11445861252295
 20
418.61926312434917
 30
0.0
 11
-107.11445861252299
 21
392.41330794275052
 31
0.0
  0
LINE
  8
0
  6
CONTINUOUS
 62
               4
  5
14E
 10
-107.11445861252299
 20
392.41330794275052
 30
0.0
 11
-104.11445861252302
 21
392.41330794275052
 31
0.0
  0
LINE
  8
0
  6
CONTINUOUS
 62
               4
  5
14F
 10
-110.11445861252302
 20
409.76245498166469
 30
0.0
 11
-110.11445861252305
 21
394.14535875031942
 31
0.0
  0
LINE
  8
0
  6
CONTINUOUS
 62
               4
  5
150
 10
-107.11445861252298
 20
230.52885932872766
 30
0.0
 11
-110.11445861252304
 21
221.67205118604335
 31
0.0
  0
LINE
  8
0
  6
CONTINUOUS
 62
               4
  5
151
 10
-104.11445861252301
 20
230.52885932872783
 30
0.0
 11
-107.11445861252298
 21
230.52885932872783
 31
0.0
  0
LINE
  8
0
  6
CONTINUOUS
 62
               4
  5
152
 10
-107.11445861252298
 20
204.32290414712924
 30
0.0
 11
-110.11445861252304
 21
206.05495495469813
 31
0.0
  0
LINE
  8
0
  6
CONTINUOUS
 62
               4
  5
153
 10
-107.11445861252298
 20
230.52885932872783
 30
0.0
 11
-107.11445861252298
 21
204.32290414712924
 31
0.0
  0
LINE
  8
0
  6
CONTINUOUS
 62
               4
  5
154
 10
-107.11445861252298
 20
204.32290414712924
 30
0.0
 11
-104.11445861252301
 21
204.32290414712924
 31
0.0
  0
LINE
  8
0
  6
CONTINUOUS
 62
               4
  5
155
 10
-110.11445861252304
 20
221.67205118604335
 30
0.0
 11
-110.11445861252304
 21
206.05495495469813
 31
0.0
  0
LINE
  8
0
  6
CONTINUOUS
 62
               4
  5
156
 10
-274.99779194585335
 20
20.601873730520879
 30
0.0
 11
-274.99779194585335
 21
29.468540397187439
 31
0.0
  0
LINE
  8
0
  6
CONTINUOUS
 62
               4
  5
157
 10
-296.8644586125198
 20
20.601873730520765
 30
0.0
 11
-296.8644586125198
 21
29.468540397187326
 31
0.0
  0
LINE
  8
0
  6
CONTINUOUS
 62
               4
  5
158
 10
-274.99779194585335
 20
29.468540397187439
 30
0.0
 11
-276.93112527918663
 21
30.601873730520879
 31
0.0
  0
LINE
  8
0
  6
CONTINUOUS
 62
               4
  5
159
 10
-296.8644586125198
 20
29.468540397187326
 30
0.0
 11
-294.93112527918652
 21
30.601873730520765
 31
0.0
  0
LINE
  8
0
  6
CONTINUOUS
 62
               4
  5
15A
 10
-294.93112527918652
 20
30.601873730520765
 30
0.0
 11
-276.93112527918663
 21
30.601873730520879
 31
0.0
  0
ARC
  8
0
  6
CONTINUOUS
 62
               4
  5
15B
 10
-285.9311252791864
 20
11.935207063854136
 30
0.0
 40
18.133333333333333
 50
72.000000020567811
 51
108.0000003907917
  0
ARC
  8
0
  6
CONTINUOUS
 62
               4
  5
15C
 10
-277.66445861251987
 20
25.268540397187621
 30
0.0
 40
4.8666666666666645
 50
56.000000038850516
 51
124.00000037250901
  0
ARC
  8
0
  6
CONTINUOUS
 62
               4
  5
15D
 10
-294.19779194585311
 20
25.268540397187508
 30
0.0
 40
4.8666666666666645
 50
56.000000038850516
 51
124.00000037250901
  0
LINE
  8
0
  6
CONTINUOUS
 62
               4
  5
15E
 10
-280.39779194585333
 20
20.601873730520879
 30
0.0
 11
-280.39779194585333
 21
29.468540397187439
 31
0.0
  0
LINE
  8
0
  6
CONTINUOUS
 62
               4
  5
15F
 10
-291.39779194585321
 20
20.601873730520765
 30
0.0
 11
-291.39779194585321
 21
29.468540397187326
 31
0.0
  0
LINE
  8
0
  6
CONTINUOUS
 62
               4
  5
160
 10
-291.93112527918652
 20
30.601873730520765
 30
0.0
 11
-291.93112527918652
 21
33.825613186816923
 31
0.0
  0
LINE
  8
0
  6
CONTINUOUS
 62
               4
  5
161
 10
-291.93112527918652
 20
33.825613186816923
 30
0.0
 11
-289.93112527918652
 21
35.825613186816923
 31
0.0
  0
LINE
  8
0
  6
CONTINUOUS
 62
               4
  5
162
 10
-279.93112527918652
 20
33.825613186817037
 30
0.0
 11
-281.93112527918663
 21
35.825613186816923
 31
0.0
  0
LINE
  8
0
  6
CONTINUOUS
 62
               4
  5
163
 10
-281.93112527918663
 20
35.825613186816923
 30
0.0
 11
-289.93112527918652
 21
35.825613186816923
 31
0.0
  0
LINE
  8
0
  6
CONTINUOUS
 62
               4
  5
164
 10
-279.93112527918652
 20
33.825613186817037
 30
0.0
 11
-291.93112527918652
 21
33.825613186816923
 31
0.0
  0
LINE
  8
0
  6
CONTINUOUS
 62
               4
  5
165
 10
-279.93112527918652
 20
33.825613186817037
 30
0.0
 11
-279.93112527918652
 21
30.601873730520879
 31
0.0
  0
LINE
  8
0
  6
CONTINUOUS
 62
               4
  5
166
 10
-410.74779194585312
 20
20.601873730520879
 30
0.0
 11
-410.74779194585312
 21
29.468540397187439
 31
0.0
  0
LINE
  8
0
  6
CONTINUOUS
 62
               4
  5
167
 10
-432.61445861251968
 20
20.601873730520879
 30
0.0
 11
-432.61445861251968
 21
29.468540397187439
 31
0.0
  0
LINE
  8
0
  6
CONTINUOUS
 62
               4
  5
168
 10
-410.74779194585312
 20
29.468540397187439
 30
0.0
 11
-412.6811252791864
 21
30.601873730520879
 31
0.0
  0
LINE
  8
0
  6
CONTINUOUS
 62
               4
  5
169
 10
-432.61445861251968
 20
29.468540397187439
 30
0.0
 11
-430.6811252791864
 21
30.601873730520879
 31
0.0
  0
LINE
  8
0
  6
CONTINUOUS
 62
               4
  5
16A
 10
-430.6811252791864
 20
30.601873730520879
 30
0.0
 11
-412.6811252791864
 21
30.601873730520879
 31
0.0
  0
ARC
  8
0
  6
CONTINUOUS
 62
               4
  5
16B
 10
-421.68112527918629
 20
11.935207063854136
 30
0.0
 40
18.133333333333333
 50
72.000000020567811
 51
108.0000003907917
  0
ARC
  8
0
  6
CONTINUOUS
 62
               4
  5
16C
 10
-413.41445861251975
 20
25.268540397187621
 30
0.0
 40
4.8666666666666645
 50
56.000000038850516
 51
124.00000037250901
  0
ARC
  8
0
  6
CONTINUOUS
 62
               4
  5
16D
 10
-429.94779194585317
 20
25.268540397187621
 30
0.0
 40
4.8666666666666645
 50
56.000000038850516
 51
124.00000037250901
  0
LINE
  8
0
  6
CONTINUOUS
 62
               4
  5
16E
 10
-416.14779194585321
 20
20.601873730520879
 30
0.0
 11
-416.14779194585321
 21
29.468540397187439
 31
0.0
  0
LINE
  8
0
  6
CONTINUOUS
 62
               4
  5
16F
 10
-427.1477919458531
 20
20.601873730520879
 30
0.0
 11
-427.1477919458531
 21
29.468540397187439
 31
0.0
  0
LINE
  8
0
  6
CONTINUOUS
 62
               4
  5
170
 10
-427.6811252791864
 20
30.601873730520879
 30
0.0
 11
-427.6811252791864
 21
33.825613186817037
 31
0.0
  0
LINE
  8
0
  6
CONTINUOUS
 62
               4
  5
171
 10
-427.6811252791864
 20
33.825613186817037
 30
0.0
 11
-425.6811252791864
 21
35.825613186816923
 31
0.0
  0
LINE
  8
0
  6
CONTINUOUS
 62
               4
  5
172
 10
-415.6811252791864
 20
33.825613186817037
 30
0.0
 11
-417.6811252791864
 21
35.825613186816923
 31
0.0
  0
LINE
  8
0
  6
CONTINUOUS
 62
               4
  5
173
 10
-417.6811252791864
 20
35.825613186816923
 30
0.0
 11
-425.6811252791864
 21
35.825613186816923
 31
0.0
  0
LINE
  8
0
  6
CONTINUOUS
 62
               4
  5
174
 10
-415.6811252791864
 20
33.825613186817037
 30
0.0
 11
-427.6811252791864
 21
33.825613186817037
 31
0.0
  0
LINE
  8
0
  6
CONTINUOUS
 62
               4
  5
175
 10
-415.6811252791864
 20
33.825613186817037
 30
0.0
 11
-415.6811252791864
 21
30.601873730520879
 31
0.0
  0
LINE
  8
0
  6
CONTINUOUS
 62
               4
  5
176
 10
-427.61445861252122
 20
-10.252559323147898
 30
0.0
 11
-427.61445861252122
 21
1.6018737305205377
 31
0.0
  0
LINE
  8
0
  6
CONTINUOUS
 62
               4
  5
177
 10
-415.61445861252116
 20
1.6018737305205377
 30
0.0
 11
-415.61445861252116
 21
-9.8335100892469836
 31
0.0
  0
LINE
  8
0
  6
CONTINUOUS
 62
               4
  5
178
 10
-291.86445861252116
 20
1.601873730520424
 30
0.0
 11
-291.86445861252116
 21
-9.257220196914524
 31
0.0
  0
LINE
  8
0
  6
CONTINUOUS
 62
               4
  5
179
 10
-279.86445861252128
 20
-9.2572201969145915
 30
0.0
 11
-279.86445861252128
 21
1.6018737305205377
 31
0.0
  0
LINE
  8
0
  6
CONTINUOUS
 62
               4
  5
17A
 10
-278.93112527918589
 20
-28.53192549933928
 30
0.0
 11
-297.15988183450884
 21
-28.53192549933928
 31
0.0
  0
LINE
  8
0
  6
CONTINUOUS
 62
               4
  5
17B
 10
-297.15988183450884
 20
-32.531925499339394
 30
0.0
 11
-292.93112527918589
 21
-32.531925499339394
 31
0.0
  0
ARC
  8
0
  6
CONTINUOUS
 62
               4
  5
17C
 10
-299.93112527918589
 20
-30.53192549933928
 30
0.0
 40
2.0
 50
179.9999999999996
 51
269.99999999999937
  0
ARC
  8
0
  6
CONTINUOUS
 62
               4
  5
17D
 10
-299.93112527918589
 20
-30.53192549933928
 30
0.0
 40
2.0
 50
89.999999999999787
 51
179.9999999999996
  0
ARC
  8
0
  6
CONTINUOUS
 62
               4
  5
17E
 10
-297.15988183450884
 20
-30.53192549933928
 30
0.0
 40
2.0
 50
179.9999999999996
 51
269.99999999999937
  0
ARC
  8
0
  6
CONTINUOUS
 62
               4
  5
17F
 10
-297.15988183450884
 20
-30.53192549933928
 30
0.0
 40
2.0
 50
89.999999999999787
 51
179.9999999999996
  0
LINE
  8
0
  6
CONTINUOUS
 62
               4
  5
180
 10
-299.93112527918589
 20
-32.531925499339394
 30
0.0
 11
-296.93112527918589
 21
-32.531925499339394
 31
0.0
  0
LINE
  8
0
  6
CONTINUOUS
 62
               4
  5
181
 10
-299.93112527918589
 20
-28.53192549933928
 30
0.0
 11
-296.93112527918589
 21
-28.53192549933928
 31
0.0
  0
LINE
  8
0
  6
CONTINUOUS
 62
               4
  5
182
 10
-278.93112527918589
 20
-28.53192549933928
 30
0.0
 11
-278.93112527918589
 21
-34.03192549933928
 31
0.0
  0
LINE
  8
0
  6
CONTINUOUS
 62
               4
  5
183
 10
-278.93112527918589
 20
-34.03192549933928
 30
0.0
 11
-292.93112527918589
 21
-34.03192549933928
 31
0.0
  0
LINE
  8
0
  6
CONTINUOUS
 62
               4
  5
184
 10
-292.93112527918589
 20
-34.03192549933928
 30
0.0
 11
-297.19208923985258
 21
-32.531929773885253
 31
0.0
  0
LINE
  8
0
  6
CONTINUOUS
 62
               4
  5
185
 10
-278.93112527918589
 20
-33.03192549933928
 30
0.0
 11
-285.93112527918589
 21
-33.03192549933928
 31
0.0
  0
ARC
  8
0
  6
CONTINUOUS
 62
               4
  5
186
 10
-285.93112527918589
 20
16.218074500663448
 30
0.0
 40
49.250000000002778
 50
261.82876644005029
 51
269.99999999999937
  0
LINE
  8
0
  6
CONTINUOUS
 62
               4
  5
187
 10
-430.68112527918652
 20
-35.462925671343186
 30
0.0
 11
-430.68112527918652
 21
-28.758910521292549
 31
0.0
  0
LINE
  8
0
  6
CONTINUOUS
 62
               4
  5
188
 10
-412.68112527918652
 20
-35.462925671343186
 30
0.0
 11
-430.68112527918652
 21
-35.462925671343186
 31
0.0
  0
LINE
  8
0
  6
CONTINUOUS
 62
               4
  5
189
 10
-412.68112527918652
 20
-35.462925671343186
 30
0.0
 11
-412.68112527918652
 21
-30.668189359508219
 31
0.0
  0
LINE
  8
0
  6
CONTINUOUS
 62
               4
  5
18A
 10
-254.11445861252113
 20
1.601873730520424
 30
0.0
 11
-254.11445861252142
 21
-3.3391603058671535
 31
0.0
  0
LINE
  8
0
  6
CONTINUOUS
 62
               4
  5
18B
 10
-254.11445861252142
 20
-8.3391603058671535
 30
0.0
 11
-254.11445861252142
 21
-9.2572201969147354
 31
0.0
  0
LINE
  8
0
  6
CONTINUOUS
 62
               4
  5
18C
 10
-408.11445861252116
 20
1.6018737305205377
 30
0.0
 11
-408.11445861252116
 21
-3.3391603058672672
 31
0.0
  0
LINE
  8
0
  6
CONTINUOUS
 62
               4
  5
18D
 10
-408.11445861252116
 20
-8.3391603058672672
 30
0.0
 11
-408.11445861252116
 21
-9.2572201969138721
 31
0.0
  0
LINE
  8
0
  6
CONTINUOUS
 62
               4
  5
18E
 10
-250.11445861252136
 20
-8.3391603058671535
 30
0.0
 11
-279.86445861252105
 21
-8.3391603058669261
 31
0.0
  0
LINE
  8
0
  6
CONTINUOUS
 62
               4
  5
18F
 10
-250.11445861252136
 20
-3.3391603058671535
 30
0.0
 11
-279.86445861252105
 21
-3.3391603058669261
 31
0.0
  0
LINE
  8
0
  6
CONTINUOUS
 62
               4
  5
190
 10
-250.11445861252136
 20
-3.3391603058671535
 30
0.0
 11
-250.11445861252136
 21
-8.3391603058671535
 31
0.0
  0
LINE
  8
0
  6
CONTINUOUS
 62
               4
  5
191
 10
-412.11445861252128
 20
-3.3391603058669261
 30
0.0
 11
-412.11445861252128
 21
-8.3391603058669261
 31
0.0
  0
LINE
  8
0
  6
CONTINUOUS
 62
               4
  5
192
 10
-291.86445861252116
 20
-8.3391603058671535
 30
0.0
 11
-412.11445861252128
 21
-8.3391603058669261
 31
0.0
  0
LINE
  8
0
  6
CONTINUOUS
 62
               4
  5
193
 10
-291.86445861252116
 20
-3.3391603058671535
 30
0.0
 11
-412.11445861252128
 21
-3.3391603058669261
 31
0.0
  0
LINE
  8
0
  6
CONTINUOUS
 62
               4
  5
194
 10
220.66933067062359
 20
29.551711713563577
 30
0.0
 11
220.66933067062359
 21
32.018378380230274
 31
0.0
  0
LINE
  8
0
  6
CONTINUOUS
 62
               4
  5
195
 10
220.66933067062359
 20
33.838623510064949
 30
0.0
 11
222.66933067062337
 21
35.838623510064949
 31
0.0
  0
LINE
  8
0
  6
CONTINUOUS
 62
               4
  5
196
 10
232.66933067062337
 20
33.838623510065062
 30
0.0
 11
230.66933067062291
 21
35.838623510064949
 31
0.0
  0
LINE
  8
0
  6
CONTINUOUS
 62
               4
  5
197
 10
230.66933067062291
 20
35.838623510064949
 30
0.0
 11
222.66933067062337
 21
35.838623510064949
 31
0.0
  0
LINE
  8
0
  6
CONTINUOUS
 62
               4
  5
198
 10
232.66933067062337
 20
33.838623510065062
 30
0.0
 11
220.66933067062359
 21
33.838623510064949
 31
0.0
  0
LINE
  8
0
  6
CONTINUOUS
 62
               4
  5
199
 10
232.66933067062337
 20
32.018378380230388
 30
0.0
 11
232.66933067062337
 21
29.551711713563691
 31
0.0
  0
LINE
  8
0
  6
CONTINUOUS
 62
               4
  5
19A
 10
142.16933067062303
 20
29.551711713802206
 30
0.0
 11
142.16933067062303
 21
33.838623510303577
 31
0.0
  0
LINE
  8
0
  6
CONTINUOUS
 62
               4
  5
19B
 10
142.16933067062303
 20
33.838623510303577
 30
0.0
 11
144.16933067062303
 21
35.83862351030335
 31
0.0
  0
LINE
  8
0
  6
CONTINUOUS
 62
               4
  5
19C
 10
154.16933067062303
 20
33.838623510303577
 30
0.0
 11
152.16933067062303
 21
35.83862351030335
 31
0.0
  0
LINE
  8
0
  6
CONTINUOUS
 62
               4
  5
19D
 10
152.16933067062303
 20
35.83862351030335
 30
0.0
 11
144.16933067062303
 21
35.83862351030335
 31
0.0
  0
LINE
  8
0
  6
CONTINUOUS
 62
               4
  5
19E
 10
154.16933067062303
 20
33.838623510303577
 30
0.0
 11
142.16933067062303
 21
33.838623510303577
 31
0.0
  0
LINE
  8
0
  6
CONTINUOUS
 62
               4
  5
19F
 10
154.16933067062303
 20
33.838623510303577
 30
0.0
 11
154.16933067062303
 21
29.551711713802206
 31
0.0
  0
LINE
  8
0
  6
CONTINUOUS
 62
               4
  5
1A0
 10
299.16933067062303
 20
29.551711713802888
 30
0.0
 11
299.16933067062303
 21
33.838623510304259
 31
0.0
  0
LINE
  8
0
  6
CONTINUOUS
 62
               4
  5
1A1
 10
299.16933067062303
 20
33.838623510304259
 30
0.0
 11
301.16933067062314
 21
35.838623510304146
 31
0.0
  0
LINE
  8
0
  6
CONTINUOUS
 62
               4
  5
1A2
 10
311.16933067062314
 20
33.838623510304259
 30
0.0
 11
309.16933067062303
 21
35.838623510304146
 31
0.0
  0
LINE
  8
0
  6
CONTINUOUS
 62
               4
  5
1A3
 10
309.16933067062303
 20
35.838623510304146
 30
0.0
 11
301.16933067062314
 21
35.838623510304146
 31
0.0
  0
LINE
  8
0
  6
CONTINUOUS
 62
               4
  5
1A4
 10
311.16933067062314
 20
33.838623510304259
 30
0.0
 11
299.16933067062303
 21
33.838623510304259
 31
0.0
  0
LINE
  8
0
  6
CONTINUOUS
 62
               4
  5
1A5
 10
311.16933067062314
 20
33.838623510304259
 30
0.0
 11
311.16933067062314
 21
29.551711713802888
 31
0.0
  0
LINE
  8
0
  6
CONTINUOUS
 62
               4
  5
1A6
 10
312.16933067062371
 20
-34.474711919137476
 30
0.0
 11
310.41476074635329
 21
-34.474711919137476
 31
0.0
  0
LINE
  8
0
  6
CONTINUOUS
 62
               4
  5
1A7
 10
310.41476074635329
 20
-34.474711919137476
 30
0.0
 11
296.41476074635329
 21
-34.474711919137476
 31
0.0
  0
LINE
  8
0
  6
CONTINUOUS
 62
               4
  5
1A8
 10
296.41476074635329
 20
-34.474711919137476
 30
0.0
 11
290.41755007373297
 21
-32.974711919137476
 31
0.0
  0
LINE
  8
0
  6
CONTINUOUS
 62
               4
  5
1A9
 10
287.6966562487396
 20
-32.974711919137476
 30
0.0
 11
300.42457831009744
 21
-32.974711919137476
 31
0.0
  0
LINE
  8
0
  6
CONTINUOUS
 62
               4
  5
1AA
 10
300.42457831009744
 20
-32.974711919137476
 30
0.0
 11
303.14547219632141
 21
-32.974711919137476
 31
0.0
  0
LINE
  8
0
  6
CONTINUOUS
 62
               4
  5
1AB
 10
310.41476074635329
 20
-34.474711919137476
 30
0.0
 11
303.14547219632141
 21
-32.974711919137476
 31
0.0
  0
LINE
  8
0
  6
CONTINUOUS
 62
               4
  5
1AC
 10
300.42457831009744
 20
-32.974711919137476
 30
0.0
 11
300.42457831009744
 21
-28.974711919137473
 31
0.0
  0
LINE
  8
0
  6
CONTINUOUS
 62
               4
  5
1AD
 10
287.6966562487396
 20
-28.974711919137473
 30
0.0
 11
287.6966562487396
 21
-32.974711919137476
 31
0.0
  0
LINE
  8
0
  6
CONTINUOUS
 62
               4
  5
1AE
 10
312.16933067062371
 20
-34.474711919137476
 30
0.0
 11
312.16933067062371
 21
-28.974711919137473
 31
0.0
  0
LINE
  8
0
  6
CONTINUOUS
 62
               4
  5
1AF
 10
312.16933067062382
 20
-28.974711919137359
 30
0.0
 11
287.6966562487396
 21
-28.974711919137473
 31
0.0
  0
LINE
  8
0
  6
CONTINUOUS
 62
               4
  5
1B0
 10
155.16933067062359
 20
-34.474711919137476
 30
0.0
 11
155.16933067062359
 21
-28.974711919137473
 31
0.0
  0
LINE
  8
0
  6
CONTINUOUS
 62
               4
  5
1B1
 10
155.16933067062359
 20
-34.474711919137476
 30
0.0
 11
153.41476074635307
 21
-34.474711919137476
 31
0.0
  0
LINE
  8
0
  6
CONTINUOUS
 62
               4
  5
1B2
 10
153.41476074635307
 20
-34.474711919137476
 30
0.0
 11
139.41476074635318
 21
-34.474711919137476
 31
0.0
  0
LINE
  8
0
  6
CONTINUOUS
 62
               4
  5
1B3
 10
130.69665624873926
 20
-32.974711919137476
 30
0.0
 11
133.41755007373285
 21
-32.974711919137476
 31
0.0
  0
LINE
  8
0
  6
CONTINUOUS
 62
               4
  5
1B4
 10
130.69665624873926
 20
-28.974711919137473
 30
0.0
 11
130.69665624873926
 21
-32.974711919137476
 31
0.0
  0
LINE
  8
0
  6
CONTINUOUS
 62
               4
  5
1B5
 10
139.41476074635318
 20
-34.474711919137476
 30
0.0
 11
133.41755007373285
 21
-32.974711919137476
 31
0.0
  0
LINE
  8
0
  6
CONTINUOUS
 62
               4
  5
1B6
 10
155.16933067062371
 20
-28.974711919137359
 30
0.0
 11
130.69665624873926
 21
-28.974711919137473
 31
0.0
  0
LINE
  8
0
  6
CONTINUOUS
 62
               4
  5
1B7
 10
142.23599733728815
 20
-10.697382808090349
 30
0.0
 11
142.23599733728815
 21
0.5517117138017511
 31
0.0
  0
LINE
  8
0
  6
CONTINUOUS
 62
               4
  5
1B8
 10
299.23599733728827
 20
-10.490186242439448
 30
0.0
 11
299.23599733728827
 21
0.5517117138025469
 31
0.0
  0
LINE
  8
0
  6
CONTINUOUS
 62
               4
  5
1B9
 10
311.23599733728827
 20
0.5517117138025469
 30
0.0
 11
311.23599733728827
 21
-10.702038910689133
 31
0.0
  0
LINE
  8
0
  6
CONTINUOUS
 62
               4
  5
1BA
 10
154.2359973372894
 20
-10.490186242439394
 30
0.0
 11
154.2359973372894
 21
0.5517117135458814
 31
0.0
  0
CIRCLE
  8
0
  6
CONTINUOUS
 62
               4
  5
1BB
 10
132.62412877281187
 20
-178.35292437167078
 30
0.0
 40
11.0
  0
LINE
  8
0
  6
CONTINUOUS
 62
               4
  5
1BC
 10
145.32583469498363
 20
-178.35292437167078
 30
0.0
 11
138.97498173389775
 21
-167.35292437167078
 31
0.0
  0
LINE
  8
0
  6
CONTINUOUS
 62
               4
  5
1BD
 10
138.97498173389775
 20
-167.35292437167078
 30
0.0
 11
126.27327581172599
 21
-167.35292437167078
 31
0.0
  0
LINE
  8
0
  6
CONTINUOUS
 62
               4
  5
1BE
 10
126.27327581172599
 20
-167.35292437167078
 30
0.0
 11
119.92242285064012
 21
-178.35292437167078
 31
0.0
  0
LINE
  8
0
  6
CONTINUOUS
 62
               4
  5
1BF
 10
119.92242285064012
 20
-178.35292437167078
 30
0.0
 11
126.27327581172599
 21
-189.35292437167078
 31
0.0
  0
LINE
  8
0
  6
CONTINUOUS
 62
               4
  5
1C0
 10
126.27327581172599
 20
-189.35292437167078
 30
0.0
 11
138.97498173389775
 21
-189.35292437167078
 31
0.0
  0
LINE
  8
0
  6
CONTINUOUS
 62
               4
  5
1C1
 10
138.97498173389775
 20
-189.35292437167078
 30
0.0
 11
145.32583469498363
 21
-178.35292437167078
 31
0.0
  0
CIRCLE
  8
0
  6
CONTINUOUS
 62
               4
  5
1C2
 10
132.62412877281187
 20
-178.35292437167078
 30
0.0
 40
6.0
  0
CIRCLE
  8
0
  6
CONTINUOUS
 62
               4
  5
1C3
 10
132.62412877281187
 20
-178.35292437167078
 30
0.0
 40
7.0
  0
CIRCLE
  8
0
  6
CONTINUOUS
 62
               4
  5
1C4
 10
320.71453256843427
 20
-178.3529243716691
 30
0.0
 40
11.0
  0
LINE
  8
0
  6
CONTINUOUS
 62
               4
  5
1C5
 10
333.41623849060602
 20
-178.3529243716691
 30
0.0
 11
327.06538552952014
 21
-167.3529243716691
 31
0.0
  0
LINE
  8
0
  6
CONTINUOUS
 62
               4
  5
1C6
 10
327.06538552952014
 20
-167.3529243716691
 30
0.0
 11
314.36367960734839
 21
-167.3529243716691
 31
0.0
  0
LINE
  8
0
  6
CONTINUOUS
 62
               4
  5
1C7
 10
314.36367960734839
 20
-167.3529243716691
 30
0.0
 11
308.01282664626251
 21
-178.3529243716691
 31
0.0
  0
LINE
  8
0
  6
CONTINUOUS
 62
               4
  5
1C8
 10
308.01282664626251
 20
-178.3529243716691
 30
0.0
 11
314.36367960734839
 21
-189.3529243716691
 31
0.0
  0
LINE
  8
0
  6
CONTINUOUS
 62
               4
  5
1C9
 10
314.36367960734839
 20
-189.3529243716691
 30
0.0
 11
327.06538552952014
 21
-189.3529243716691
 31
0.0
  0
LINE
  8
0
  6
CONTINUOUS
 62
               4
  5
1CA
 10
327.06538552952014
 20
-189.3529243716691
 30
0.0
 11
333.41623849060602
 21
-178.3529243716691
 31
0.0
  0
CIRCLE
  8
0
  6
CONTINUOUS
 62
               4
  5
1CB
 10
320.71453256843427
 20
-178.3529243716691
 30
0.0
 40
6.0
  0
CIRCLE
  8
0
  6
CONTINUOUS
 62
               4
  5
1CC
 10
320.71453256843427
 20
-178.3529243716691
 30
0.0
 40
7.0
  0
CIRCLE
  8
0
  6
CONTINUOUS
 62
               4
  5
1CD
 10
320.71453256843438
 20
-366.44332816729349
 30
0.0
 40
11.0
  0
LINE
  8
0
  6
CONTINUOUS
 62
               4
  5
1CE
 10
333.41623849060613
 20
-366.44332816729349
 30
0.0
 11
327.06538552952026
 21
-355.44332816729349
 31
0.0
  0
LINE
  8
0
  6
CONTINUOUS
 62
               4
  5
1CF
 10
327.06538552952026
 20
-355.44332816729349
 30
0.0
 11
314.3636796073485
 21
-355.44332816729349
 31
0.0
  0
LINE
  8
0
  6
CONTINUOUS
 62
               4
  5
1D0
 10
314.3636796073485
 20
-355.44332816729349
 30
0.0
 11
308.01282664626262
 21
-366.44332816729349
 31
0.0
  0
LINE
  8
0
  6
CONTINUOUS
 62
               4
  5
1D1
 10
308.01282664626262
 20
-366.44332816729349
 30
0.0
 11
314.3636796073485
 21
-377.44332816729349
 31
0.0
  0
LINE
  8
0
  6
CONTINUOUS
 62
               4
  5
1D2
 10
314.3636796073485
 20
-377.44332816729349
 30
0.0
 11
327.06538552952026
 21
-377.44332816729349
 31
0.0
  0
LINE
  8
0
  6
CONTINUOUS
 62
               4
  5
1D3
 10
327.06538552952026
 20
-377.44332816729349
 30
0.0
 11
333.41623849060613
 21
-366.44332816729349
 31
0.0
  0
CIRCLE
  8
0
  6
CONTINUOUS
 62
               4
  5
1D4
 10
320.71453256843438
 20
-366.44332816729349
 30
0.0
 40
6.0
  0
CIRCLE
  8
0
  6
CONTINUOUS
 62
               4
  5
1D5
 10
320.71453256843438
 20
-366.44332816729349
 30
0.0
 40
7.0
  0
CIRCLE
  8
0
  6
CONTINUOUS
 62
               4
  5
1D6
 10
132.62412877281142
 20
-366.44332816729292
 30
0.0
 40
11.0
  0
LINE
  8
0
  6
CONTINUOUS
 62
               4
  5
1D7
 10
145.32583469498317
 20
-366.44332816729292
 30
0.0
 11
138.97498173389729
 21
-355.44332816729292
 31
0.0
  0
LINE
  8
0
  6
CONTINUOUS
 62
               4
  5
1D8
 10
138.97498173389729
 20
-355.44332816729292
 30
0.0
 11
126.27327581172554
 21
-355.44332816729292
 31
0.0
  0
LINE
  8
0
  6
CONTINUOUS
 62
               4
  5
1D9
 10
126.27327581172554
 20
-355.44332816729292
 30
0.0
 11
119.92242285063966
 21
-366.44332816729292
 31
0.0
  0
LINE
  8
0
  6
CONTINUOUS
 62
               4
  5
1DA
 10
119.92242285063966
 20
-366.44332816729292
 30
0.0
 11
126.27327581172554
 21
-377.44332816729292
 31
0.0
  0
LINE
  8
0
  6
CONTINUOUS
 62
               4
  5
1DB
 10
126.27327581172554
 20
-377.44332816729292
 30
0.0
 11
138.97498173389729
 21
-377.44332816729292
 31
0.0
  0
LINE
  8
0
  6
CONTINUOUS
 62
               4
  5
1DC
 10
138.97498173389729
 20
-377.44332816729292
 30
0.0
 11
145.32583469498317
 21
-366.44332816729292
 31
0.0
  0
CIRCLE
  8
0
  6
CONTINUOUS
 62
               4
  5
1DD
 10
132.62412877281142
 20
-366.44332816729292
 30
0.0
 40
6.0
  0
CIRCLE
  8
0
  6
CONTINUOUS
 62
               4
  5
1DE
 10
132.62412877281142
 20
-366.44332816729292
 30
0.0
 40
7.0
  0
CIRCLE
  8
0
  6
CONTINUOUS
 62
               4
  5
1DF
 10
-285.86445861252184
 20
387.74340508743182
 30
0.0
 40
9.5
  0
LINE
  8
0
  6
CONTINUOUS
 62
               4
  5
1E0
 10
-274.89480349791893
 20
387.74340508743182
 30
0.0
 11
-280.37963105522039
 21
397.24340508743182
 31
0.0
  0
LINE
  8
0
  6
CONTINUOUS
 62
               4
  5
1E1
 10
-280.37963105522039
 20
397.24340508743182
 30
0.0
 11
-291.3492861698233
 21
397.24340508743182
 31
0.0
  0
LINE
  8
0
  6
CONTINUOUS
 62
               4
  5
1E2
 10
-291.3492861698233
 20
397.24340508743182
 30
0.0
 11
-296.83411372712476
 21
387.74340508743182
 31
0.0
  0
LINE
  8
0
  6
CONTINUOUS
 62
               4
  5
1E3
 10
-296.83411372712476
 20
387.74340508743182
 30
0.0
 11
-291.3492861698233
 21
378.24340508743182
 31
0.0
  0
LINE
  8
0
  6
CONTINUOUS
 62
               4
  5
1E4
 10
-291.3492861698233
 20
378.24340508743182
 30
0.0
 11
-280.37963105522039
 21
378.24340508743182
 31
0.0
  0
LINE
  8
0
  6
CONTINUOUS
 62
               4
  5
1E5
 10
-280.37963105522039
 20
378.24340508743182
 30
0.0
 11
-274.89480349791893
 21
387.74340508743182
 31
0.0
  0
CIRCLE
  8
0
  6
CONTINUOUS
 62
               4
  5
1E6
 10
-285.86445861252184
 20
387.74340508743182
 30
0.0
 40
5.125
  0
CIRCLE
  8
0
  6
CONTINUOUS
 62
               4
  5
1E7
 10
-285.86445861252184
 20
387.74340508743182
 30
0.0
 40
6.0
  0
CIRCLE
  8
0
  6
CONTINUOUS
 62
               4
  5
1E8
 10
-285.86445861252173
 20
230.99280700244822
 30
0.0
 40
9.5
  0
LINE
  8
0
  6
CONTINUOUS
 62
               4
  5
1E9
 10
-274.89480349791882
 20
230.99280700244822
 30
0.0
 11
-280.37963105522027
 21
240.49280700244822
 31
0.0
  0
LINE
  8
0
  6
CONTINUOUS
 62
               4
  5
1EA
 10
-280.37963105522027
 20
240.49280700244822
 30
0.0
 11
-291.34928616982319
 21
240.49280700244822
 31
0.0
  0
LINE
  8
0
  6
CONTINUOUS
 62
               4
  5
1EB
 10
-291.34928616982319
 20
240.49280700244822
 30
0.0
 11
-296.83411372712465
 21
230.99280700244822
 31
0.0
  0
LINE
  8
0
  6
CONTINUOUS
 62
               4
  5
1EC
 10
-296.83411372712465
 20
230.99280700244822
 30
0.0
 11
-291.34928616982319
 21
221.49280700244822
 31
0.0
  0
LINE
  8
0
  6
CONTINUOUS
 62
               4
  5
1ED
 10
-291.34928616982319
 20
221.49280700244822
 30
0.0
 11
-280.37963105522027
 21
221.49280700244822
 31
0.0
  0
LINE
  8
0
  6
CONTINUOUS
 62
               4
  5
1EE
 10
-280.37963105522027
 20
221.49280700244822
 30
0.0
 11
-274.89480349791882
 21
230.99280700244822
 31
0.0
  0
CIRCLE
  8
0
  6
CONTINUOUS
 62
               4
  5
1EF
 10
-285.86445861252173
 20
230.99280700244822
 30
0.0
 40
5.125
  0
CIRCLE
  8
0
  6
CONTINUOUS
 62
               4
  5
1F0
 10
-285.86445861252173
 20
230.99280700244822
 30
0.0
 40
6.0
  0
CIRCLE
  8
0
  6
CONTINUOUS
 62
               4
  5
1F1
 10
-421.61445861252196
 20
309.36810604493991
 30
0.0
 40
9.5
  0
LINE
  8
0
  6
CONTINUOUS
 62
               4
  5
1F2
 10
-410.64480349791904
 20
309.36810604493991
 30
0.0
 11
-416.1296310552205
 21
318.86810604493991
 31
0.0
  0
LINE
  8
0
  6
CONTINUOUS
 62
               4
  5
1F3
 10
-416.1296310552205
 20
318.86810604493991
 30
0.0
 11
-427.09928616982342
 21
318.86810604493991
 31
0.0
  0
LINE
  8
0
  6
CONTINUOUS
 62
               4
  5
1F4
 10
-427.09928616982342
 20
318.86810604493991
 30
0.0
 11
-432.58411372712487
 21
309.36810604493991
 31
0.0
  0
LINE
  8
0
  6
CONTINUOUS
 62
               4
  5
1F5
 10
-432.58411372712487
 20
309.36810604493991
 30
0.0
 11
-427.09928616982342
 21
299.86810604493991
 31
0.0
  0
LINE
  8
0
  6
CONTINUOUS
 62
               4
  5
1F6
 10
-427.09928616982342
 20
299.86810604493991
 30
0.0
 11
-416.1296310552205
 21
299.86810604493991
 31
0.0
  0
LINE
  8
0
  6
CONTINUOUS
 62
               4
  5
1F7
 10
-416.1296310552205
 20
299.86810604493991
 30
0.0
 11
-410.64480349791904
 21
309.36810604493991
 31
0.0
  0
CIRCLE
  8
0
  6
CONTINUOUS
 62
               4
  5
1F8
 10
-421.61445861252196
 20
309.36810604493991
 30
0.0
 40
5.125
  0
CIRCLE
  8
0
  6
CONTINUOUS
 62
               4
  5
1F9
 10
-421.61445861252196
 20
309.36810604493991
 30
0.0
 40
6.0
  0
LINE
  8
0
  6
CONTINUOUS
 62
               4
  5
1FA
 10
-40.705770053730873
 20
-167.35292437166939
 30
0.0
 11
-40.705770053730873
 21
-189.35292437166942
 31
0.0
  0
LINE
  8
0
  6
CONTINUOUS
 62
               4
  5
1FB
 10
-40.705770053730873
 20
-189.35292437166942
 30
0.0
 11
-51.705770053730816
 21
-189.35292437166942
 31
0.0
  0
LINE
  8
0
  6
CONTINUOUS
 62
               4
  5
1FC
 10
-51.705770053730816
 20
-189.35292437166942
 30
0.0
 11
-51.705770053730816
 21
-167.35292437166939
 31
0.0
  0
LINE
  8
0
  6
CONTINUOUS
 62
               4
  5
1FD
 10
-51.705770053730816
 20
-167.35292437166939
 30
0.0
 11
-40.705770053730873
 21
-167.35292437166939
 31
0.0
  0
LINE
  8
0
  6
CONTINUOUS
 62
               4
  5
1FE
 10
-51.705770053730816
 20
-178.35292437166942
 30
0.0
 11
-41.975940645948015
 21
-178.35292437166942
 31
0.0
  0
ARC
  8
0
  6
CONTINUOUS
 62
               4
  5
1FF
 10
-53.213145774050247
 20
-183.85292437166942
 30
0.0
 40
12.510986335659062
 50
333.92076878778312
 51
386.07923121221523
  0
ARC
  8
0
  6
CONTINUOUS
 62
               4
  5
200
 10
-53.213145774050247
 20
-172.85292437166942
 30
0.0
 40
12.510986335659062
 50
333.92076878778312
 51
386.07923121221523
  0
LINE
  8
0
  6
CONTINUOUS
 62
               4
  5
201
 10
-40.705770053730873
 20
-377.44332816729076
 30
0.0
 11
-40.705770053730873
 21
-355.4433281672907
 31
0.0
  0
LINE
  8
0
  6
CONTINUOUS
 62
               4
  5
202
 10
-40.705770053730873
 20
-355.4433281672907
 30
0.0
 11
-51.705770053730816
 21
-355.4433281672907
 31
0.0
  0
LINE
  8
0
  6
CONTINUOUS
 62
               4
  5
203
 10
-51.705770053730816
 20
-355.4433281672907
 30
0.0
 11
-51.705770053730816
 21
-377.44332816729076
 31
0.0
  0
LINE
  8
0
  6
CONTINUOUS
 62
               4
  5
204
 10
-51.705770053730816
 20
-377.44332816729076
 30
0.0
 11
-40.705770053730873
 21
-377.44332816729076
 31
0.0
  0
LINE
  8
0
  6
CONTINUOUS
 62
               4
  5
205
 10
-51.705770053730816
 20
-366.44332816729076
 30
0.0
 11
-41.975940645948015
 21
-366.44332816729076
 31
0.0
  0
ARC
  8
0
  6
CONTINUOUS
 62
               4
  5
206
 10
-53.213145774050247
 20
-360.94332816729076
 30
0.0
 40
12.510986335659062
 50
333.92076878778312
 51
386.07923121221523
  0
ARC
  8
0
  6
CONTINUOUS
 62
               4
  5
207
 10
-53.213145774050247
 20
-371.94332816729082
 30
0.0
 40
12.510986335659062
 50
333.92076878778312
 51
386.07923121221523
  0
LINE
  8
0
  6
CONTINUOUS
 62
               4
  5
208
 10
-104.11445861252301
 20
-353.74332816729071
 30
0.0
 11
-104.11445861252301
 21
-379.14332816729075
 31
0.0
  0
LINE
  8
0
  6
CONTINUOUS
 62
               4
  5
209
 10
-36.114458612523038
 20
-359.44332816729082
 30
0.0
 11
-36.114458612523038
 21
-373.44332816729076
 31
0.0
  0
LINE
  8
0
  6
CONTINUOUS
 62
               4
  5
20A
 10
-34.114458612523009
 20
-361.44332816729076
 30
0.0
 11
-34.114458612523009
 21
-371.44332816729076
 31
0.0
  0
LINE
  8
0
  6
CONTINUOUS
 62
               4
  5
20B
 10
-36.114458612523038
 20
-359.44332816729082
 30
0.0
 11
-34.114458612523009
 21
-361.44332816729076
 31
0.0
  0
LINE
  8
0
  6
CONTINUOUS
 62
               4
  5
20C
 10
-36.114458612523038
 20
-373.44332816729076
 30
0.0
 11
-34.114458612523009
 21
-371.44332816729076
 31
0.0
  0
LINE
  8
0
  6
CONTINUOUS
 62
               4
  5
20D
 10
-83.166242626348065
 20
-373.44332816729076
 30
0.0
 11
-71.705770053730816
 21
-373.44332816729076
 31
0.0
  0
LINE
  8
0
  6
CONTINUOUS
 62
               4
  5
20E
 10
-83.166242626348065
 20
-359.44332816729082
 30
0.0
 11
-71.705770053730816
 21
-359.44332816729082
 31
0.0
  0
LINE
  8
0
  6
CONTINUOUS
 62
               4
  5
20F
 10
-40.705770053730873
 20
-359.44332816729082
 30
0.0
 11
-36.114458612523038
 21
-359.44332816729082
 31
0.0
  0
LINE
  8
0
  6
CONTINUOUS
 62
               4
  5
210
 10
-40.705770053730873
 20
-373.44332816729076
 30
0.0
 11
-36.114458612523038
 21
-373.44332816729076
 31
0.0
  0
LINE
  8
0
  6
CONTINUOUS
 62
               4
  5
211
 10
-104.11445861252301
 20
-191.05292437166941
 30
0.0
 11
-104.11445861252301
 21
-165.65292437166931
 31
0.0
  0
LINE
  8
0
  6
CONTINUOUS
 62
               4
  5
212
 10
-36.114458612523038
 20
-185.35292437166942
 30
0.0
 11
-36.114458612523038
 21
-171.35292437166942
 31
0.0
  0
LINE
  8
0
  6
CONTINUOUS
 62
               4
  5
213
 10
-34.114458612523009
 20
-183.35292437166942
 30
0.0
 11
-34.114458612523009
 21
-173.35292437166942
 31
0.0
  0
LINE
  8
0
  6
CONTINUOUS
 62
               4
  5
214
 10
-36.114458612523038
 20
-185.35292437166942
 30
0.0
 11
-34.114458612523009
 21
-183.35292437166942
 31
0.0
  0
LINE
  8
0
  6
CONTINUOUS
 62
               4
  5
215
 10
-36.114458612523038
 20
-171.35292437166942
 30
0.0
 11
-34.114458612523009
 21
-173.35292437166942
 31
0.0
  0
LINE
  8
0
  6
CONTINUOUS
 62
               4
  5
216
 10
-83.166242626348065
 20
-171.35292437166936
 30
0.0
 11
-71.705770053730816
 21
-171.35292437166936
 31
0.0
  0
LINE
  8
0
  6
CONTINUOUS
 62
               4
  5
217
 10
-83.166242626348065
 20
-185.35292437166936
 30
0.0
 11
-71.705770053730816
 21
-185.35292437166936
 31
0.0
  0
LINE
  8
0
  6
CONTINUOUS
 62
               4
  5
218
 10
-40.705770053730873
 20
-185.35292437166942
 30
0.0
 11
-36.114458612523038
 21
-185.35292437166942
 31
0.0
  0
LINE
  8
0
  6
CONTINUOUS
 62
               4
  5
219
 10
-40.705770053730873
 20
-171.35292437166942
 30
0.0
 11
-36.114458612523038
 21
-171.35292437166942
 31
0.0
  0
LINE
  8
0
  6
CONTINUOUS
 62
               4
  5
21A
 10
-40.705770053730873
 20
414.41330794275063
 30
0.0
 11
-40.705770053730873
 21
392.41330794275058
 31
0.0
  0
LINE
  8
0
  6
CONTINUOUS
 62
               4
  5
21B
 10
-40.705770053730873
 20
392.41330794275058
 30
0.0
 11
-51.705770053730816
 21
392.41330794275058
 31
0.0
  0
LINE
  8
0
  6
CONTINUOUS
 62
               4
  5
21C
 10
-51.705770053730816
 20
392.41330794275058
 30
0.0
 11
-51.705770053730816
 21
414.41330794275063
 31
0.0
  0
LINE
  8
0
  6
CONTINUOUS
 62
               4
  5
21D
 10
-51.705770053730816
 20
414.41330794275063
 30
0.0
 11
-40.705770053730873
 21
414.41330794275063
 31
0.0
  0
LINE
  8
0
  6
CONTINUOUS
 62
               4
  5
21E
 10
-51.705770053730816
 20
403.41330794275058
 30
0.0
 11
-41.975940645948015
 21
403.41330794275058
 31
0.0
  0
ARC
  8
0
  6
CONTINUOUS
 62
               4
  5
21F
 10
-53.213145774050247
 20
397.91330794275058
 30
0.0
 40
12.510986335659062
 50
333.92076878778312
 51
386.07923121221523
  0
ARC
  8
0
  6
CONTINUOUS
 62
               4
  5
220
 10
-53.213145774050247
 20
408.91330794275058
 30
0.0
 40
12.510986335659062
 50
333.92076878778312
 51
386.07923121221523
  0
LINE
  8
0
  6
CONTINUOUS
 62
               4
  5
221
 10
-40.705770053730873
 20
204.32290414712924
 30
0.0
 11
-40.705770053730873
 21
226.32290414712929
 31
0.0
  0
LINE
  8
0
  6
CONTINUOUS
 62
               4
  5
222
 10
-40.705770053730873
 20
226.32290414712929
 30
0.0
 11
-51.705770053730816
 21
226.32290414712929
 31
0.0
  0
LINE
  8
0
  6
CONTINUOUS
 62
               4
  5
223
 10
-51.705770053730816
 20
226.32290414712929
 30
0.0
 11
-51.705770053730816
 21
204.32290414712924
 31
0.0
  0
LINE
  8
0
  6
CONTINUOUS
 62
               4
  5
224
 10
-51.705770053730816
 20
204.32290414712924
 30
0.0
 11
-40.705770053730873
 21
204.32290414712924
 31
0.0
  0
LINE
  8
0
  6
CONTINUOUS
 62
               4
  5
225
 10
-51.705770053730816
 20
215.32290414712924
 30
0.0
 11
-41.975940645948015
 21
215.32290414712924
 31
0.0
  0
ARC
  8
0
  6
CONTINUOUS
 62
               4
  5
226
 10
-53.213145774050247
 20
220.82290414712924
 30
0.0
 40
12.510986335659062
 50
333.92076878778312
 51
386.07923121221523
  0
ARC
  8
0
  6
CONTINUOUS
 62
               4
  5
227
 10
-53.213145774050247
 20
209.82290414712918
 30
0.0
 40
12.510986335659062
 50
333.92076878778312
 51
386.07923121221523
  0
LINE
  8
0
  6
CONTINUOUS
 62
               4
  5
228
 10
-104.11445861252301
 20
228.02290414712928
 30
0.0
 11
-104.11445861252301
 21
202.62290414712925
 31
0.0
  0
LINE
  8
0
  6
CONTINUOUS
 62
               4
  5
229
 10
-36.114458612523038
 20
222.32290414712918
 30
0.0
 11
-36.114458612523038
 21
208.32290414712924
 31
0.0
  0
LINE
  8
0
  6
CONTINUOUS
 62
               4
  5
22A
 10
-34.114458612523009
 20
220.32290414712924
 30
0.0
 11
-34.114458612523009
 21
210.32290414712924
 31
0.0
  0
LINE
  8
0
  6
CONTINUOUS
 62
               4
  5
22B
 10
-36.114458612523038
 20
222.32290414712918
 30
0.0
 11
-34.114458612523009
 21
220.32290414712924
 31
0.0
  0
LINE
  8
0
  6
CONTINUOUS
 62
               4
  5
22C
 10
-36.114458612523038
 20
208.32290414712924
 30
0.0
 11
-34.114458612523009
 21
210.32290414712924
 31
0.0
  0
LINE
  8
0
  6
CONTINUOUS
 62
               4
  5
22D
 10
-84.114458612524686
 20
208.32290414712924
 30
0.0
 11
-71.705770053730816
 21
208.32290414712924
 31
0.0
  0
LINE
  8
0
  6
CONTINUOUS
 62
               4
  5
22E
 10
-83.166242626348065
 20
222.32290414712918
 30
0.0
 11
-71.705770053730816
 21
222.32290414712918
 31
0.0
  0
LINE
  8
0
  6
CONTINUOUS
 62
               4
  5
22F
 10
-40.705770053730873
 20
222.32290414712918
 30
0.0
 11
-36.114458612523038
 21
222.32290414712918
 31
0.0
  0
LINE
  8
0
  6
CONTINUOUS
 62
               4
  5
230
 10
-40.705770053730873
 20
208.32290414712924
 30
0.0
 11
-36.114458612523038
 21
208.32290414712924
 31
0.0
  0
LINE
  8
0
  6
CONTINUOUS
 62
               4
  5
231
 10
-104.11445861252301
 20
390.71330794275059
 30
0.0
 11
-104.11445861252301
 21
416.11330794275068
 31
0.0
  0
LINE
  8
0
  6
CONTINUOUS
 62
               4
  5
232
 10
-36.114458612523038
 20
396.41330794275058
 30
0.0
 11
-36.114458612523038
 21
410.41330794275058
 31
0.0
  0
LINE
  8
0
  6
CONTINUOUS
 62
               4
  5
233
 10
-34.114458612523009
 20
398.41330794275058
 30
0.0
 11
-34.114458612523009
 21
408.41330794275058
 31
0.0
  0
LINE
  8
0
  6
CONTINUOUS
 62
               4
  5
234
 10
-36.114458612523038
 20
396.41330794275058
 30
0.0
 11
-34.114458612523009
 21
398.41330794275058
 31
0.0
  0
LINE
  8
0
  6
CONTINUOUS
 62
               4
  5
235
 10
-36.114458612523038
 20
410.41330794275058
 30
0.0
 11
-34.114458612523009
 21
408.41330794275058
 31
0.0
  0
LINE
  8
0
  6
CONTINUOUS
 62
               4
  5
236
 10
-84.114458612524686
 20
410.41330794275063
 30
0.0
 11
-71.705770053730816
 21
410.41330794275063
 31
0.0
  0
LINE
  8
0
  6
CONTINUOUS
 62
               4
  5
237
 10
-84.114458612524686
 20
396.41330794275063
 30
0.0
 11
-71.705770053730816
 21
396.41330794275063
 31
0.0
  0
LINE
  8
0
  6
CONTINUOUS
 62
               4
  5
238
 10
-40.705770053730873
 20
396.41330794275058
 30
0.0
 11
-36.114458612523038
 21
396.41330794275058
 31
0.0
  0
LINE
  8
0
  6
CONTINUOUS
 62
               4
  5
239
 10
-40.705770053730873
 20
410.41330794275058
 30
0.0
 11
-36.114458612523038
 21
410.41330794275058
 31
0.0
  0
LINE
  8
0
  6
CONTINUOUS
 62
               4
  5
23A
 10
139.66933067062303
 20
29.551711713544819
 30
0.0
 11
156.66933067062303
 21
29.551711713544819
 31
0.0
  0
LINE
  8
0
  6
CONTINUOUS
 62
               4
  5
23B
 10
138.66933067062303
 20
19.551711713544815
 30
0.0
 11
138.66933067062303
 21
28.551711713544819
 31
0.0
  0
LINE
  8
0
  6
CONTINUOUS
 62
               4
  5
23C
 10
138.66933067062303
 20
19.551711713544815
 30
0.0
 11
157.66933067062303
 21
19.551711713544812
 31
0.0
  0
LINE
  8
0
  6
CONTINUOUS
 62
               4
  5
23D
 10
157.66933067062303
 20
19.551711713544812
 30
0.0
 11
157.66933067062303
 21
28.551711713544812
 31
0.0
  0
LINE
  8
0
  6
CONTINUOUS
 62
               4
  5
23E
 10
148.16933067062303
 20
19.551711713544815
 30
0.0
 11
148.16933067062303
 21
28.425878688625044
 31
0.0
  0
ARC
  8
0
  6
CONTINUOUS
 62
               4
  5
23F
 10
143.41933067062303
 20
19.074809107605049
 30
0.0
 40
10.488326954718636
 50
63.071102706951748
 51
116.92889729304785
  0
ARC
  8
0
  6
CONTINUOUS
 62
               4
  5
240
 10
152.91933067062303
 20
19.074809107605049
 30
0.0
 40
10.488326954718636
 50
63.071102706951748
 51
116.92889729304785
  0
LINE
  8
0
  6
CONTINUOUS
 62
               4
  5
241
 10
139.66933067062303
 20
29.551711713544819
 30
0.0
 11
138.66933067062303
 21
28.551711713544819
 31
0.0
  0
LINE
  8
0
  6
CONTINUOUS
 62
               4
  5
242
 10
156.66933067062303
 20
29.551711713544819
 30
0.0
 11
157.66933067062303
 21
28.551711713544812
 31
0.0
  0
LINE
  8
0
  6
CONTINUOUS
 62
               4
  5
243
 10
217.16933067062288
 20
29.55171171355892
 30
0.0
 11
235.16933067062288
 21
29.55171171355892
 31
0.0
  0
LINE
  8
0
  6
CONTINUOUS
 62
               4
  5
244
 10
217.16933067062288
 20
29.55171171355892
 30
0.0
 11
217.16933067062288
 21
19.551711713558916
 31
0.0
  0
LINE
  8
0
  6
CONTINUOUS
 62
               4
  5
245
 10
217.16933067062288
 20
19.551711713558916
 30
0.0
 11
236.16933067062288
 21
19.551711713558912
 31
0.0
  0
LINE
  8
0
  6
CONTINUOUS
 62
               4
  5
246
 10
236.16933067062288
 20
19.551711713558912
 30
0.0
 11
236.16933067062288
 21
28.551711713558916
 31
0.0
  0
LINE
  8
0
  6
CONTINUOUS
 62
               4
  5
247
 10
226.66933067062288
 20
19.551711713558916
 30
0.0
 11
226.66933067062288
 21
28.425878688639145
 31
0.0
  0
ARC
  8
0
  6
CONTINUOUS
 62
               4
  5
248
 10
221.91933067062288
 20
19.074809107619153
 30
0.0
 40
10.488326954718632
 50
63.071102706951727
 51
116.92889729304785
  0
ARC
  8
0
  6
CONTINUOUS
 62
               4
  5
249
 10
231.41933067062288
 20
19.074809107619153
 30
0.0
 40
10.488326954718632
 50
63.071102706951727
 51
116.92889729304785
  0
LINE
  8
0
  6
CONTINUOUS
 62
               4
  5
24A
 10
236.16933067062288
 20
28.551711713558916
 30
0.0
 11
235.16933067062288
 21
29.55171171355892
 31
0.0
  0
LINE
  8
0
  6
CONTINUOUS
 62
               4
  5
24B
 10
296.66933067062308
 20
29.55171171357302
 30
0.0
 11
313.66933067062308
 21
29.55171171357302
 31
0.0
  0
LINE
  8
0
  6
CONTINUOUS
 62
               4
  5
24C
 10
295.66933067062308
 20
19.551711713573017
 30
0.0
 11
295.66933067062308
 21
28.55171171357302
 31
0.0
  0
LINE
  8
0
  6
CONTINUOUS
 62
               4
  5
24D
 10
295.66933067062308
 20
19.551711713573017
 30
0.0
 11
314.66933067062308
 21
19.551711713573013
 31
0.0
  0
LINE
  8
0
  6
CONTINUOUS
 62
               4
  5
24E
 10
314.66933067062308
 20
19.551711713573013
 30
0.0
 11
314.66933067062308
 21
28.551711713573013
 31
0.0
  0
LINE
  8
0
  6
CONTINUOUS
 62
               4
  5
24F
 10
305.16933067062308
 20
19.551711713573017
 30
0.0
 11
305.16933067062308
 21
28.425878688653246
 31
0.0
  0
ARC
  8
0
  6
CONTINUOUS
 62
               4
  5
250
 10
300.41933067062308
 20
19.07480910763325
 30
0.0
 40
10.488326954718636
 50
63.071102706951748
 51
116.92889729304785
  0
ARC
  8
0
  6
CONTINUOUS
 62
               4
  5
251
 10
309.91933067062308
 20
19.07480910763325
 30
0.0
 40
10.488326954718636
 50
63.071102706951748
 51
116.92889729304785
  0
LINE
  8
0
  6
CONTINUOUS
 62
               4
  5
252
 10
296.66933067062308
 20
29.55171171357302
 30
0.0
 11
295.66933067062308
 21
28.55171171357302
 31
0.0
  0
LINE
  8
0
  6
CONTINUOUS
 62
               4
  5
253
 10
314.66933067062308
 20
28.551711713573013
 30
0.0
 11
313.66933067062308
 21
29.55171171357302
 31
0.0
  0
LINE
  8
0
  6
DASHDOT
 62
               4
  5
254
 10
-73.577016363664626
 20
215.32290414712998
 30
0.0
 11
-111.45756917050883
 21
215.32290414712998
 31
0.0
  0
LINE
  8
0
  6
DASHDOT
 62
               4
  5
255
 10
-360.68842310956313
 20
309.36810604493991
 30
0.0
 11
-302.5006965131272
 21
309.36810604493991
 31
0.0
  0
LINE
  8
0
  6
DASHED
 62
               4
  5
256
 10
-83.114458612518462
 20
-391.39812626948003
 30
0.0
 11
-71.705770053730816
 21
-391.39812626948003
 31
0.0
  0
LINE
  8
0
  6
DASHED
 62
               4
  5
257
 10
-83.114458612518462
 20
-153.39812626948009
 30
0.0
 11
-71.705770053730816
 21
-153.39812626948009
 31
0.0
  0
LINE
  8
0
  6
DASHED
 62
               4
  5
258
 10
-84.114458612524686
 20
190.36810604493996
 30
0.0
 11
-71.705770053730816
 21
190.36810604493996
 31
0.0
  0
LINE
  8
0
  6
DASHED
 62
               4
  5
259
 10
-84.114458612524686
 20
428.36810604493991
 30
0.0
 11
-71.705770053730816
 21
428.36810604493991
 31
0.0
  0
LINE
  8
0
  6
DASHED
 62
               4
  5
25A
 10
-399.45538457499464
 20
-42.398126269479334
 30
0.0
 11
-257.61445861252162
 21
-42.398126269479732
 31
0.0
  0
LINE
  8
0
  6
DASHED
 62
               4
  5
25B
 10
153.16933067062288
 20
-42.398126269480876
 30
0.0
 11
300.16933067046352
 21
-42.398126269481288
 31
0.0
  0
LINE
  8
0
  6
DASHED
 62
               4
  5
25C
 10
-131.11445861251875
 20
419.86810604493985
 30
0.0
 11
-131.11445861251875
 21
198.86810604493985
 31
0.0
  0
LINE
  8
0
  6
DASHED
 62
               4
  5
25D
 10
-131.11445861251872
 20
-161.89812626948009
 30
0.0
 11
-131.11445861251872
 21
-382.89812626948009
 31
0.0
  0
LINE
  8
0
  6
CONTINUOUS
 62
               3
  5
25E
 10
-257.61445861252162
 20
-53.531925499339835
 30
0.0
 11
-404.61445861252173
 21
-53.531925499339067
 31
0.0
  0
LINE
  8
0
  6
CONTINUOUS
 62
               3
  5
25F
 10
-252.61445861252147
 20
-9.2572201969147443
 30
0.0
 11
-409.61445861252241
 21
-9.2572201969138632
 31
0.0
  0
LINE
  8
0
  6
CONTINUOUS
 62
               3
  5
260
 10
-431.74705529760445
 20
-11.531925499338882
 30
0.0
 11
-388.65313264567112
 21
-11.531925499339138
 31
0.0
  0
LINE
  8
0
  6
CONTINUOUS
 62
               3
  5
261
 10
-431.74705529760445
 20
-28.531925499338413
 30
0.0
 11
-388.65313264567112
 21
-28.531925499338669
 31
0.0
  0
LINE
  8
0
  6
CONTINUOUS
 62
               3
  5
262
 10
-243.11445861252193
 20
-23.038276677227344
 30
0.0
 11
-272.5702041978941
 21
-23.038276677227188
 31
0.0
  0
LINE
  8
0
  6
CONTINUOUS
 62
               3
  5
263
 10
-242.05065494371794
 20
-10.263339827462886
 30
0.0
 11
-272.5702041978941
 21
-10.263339827462715
 31
0.0
  0
LINE
  8
0
  6
CONTINUOUS
 62
               3
  5
264
 10
-349.85473370634202
 20
-28.531925499338897
 30
0.0
 11
-253.61445861252204
 21
-28.531925499339408
 31
0.0
  0
LINE
  8
0
  6
CONTINUOUS
 62
               3
  5
265
 10
-289.16463284287977
 20
-23.038276677227074
 30
0.0
 11
-431.74705529760445
 21
-23.038276677226264
 31
0.0
  0
LINE
  8
0
  6
CONTINUOUS
 62
               3
  5
266
 10
-251.61445861318745
 20
-47.531925498014274
 30
0.0
 11
-251.61445861318745
 21
-29.199077405756356
 31
0.0
  0
LINE
  8
0
  6
CONTINUOUS
 62
               3
  5
267
 10
-410.61445098379272
 20
-35.19907767213347
 30
0.0
 11
-410.61445098379272
 21
-47.531925498013379
 31
0.0
  0
ARC
  8
0
  6
CONTINUOUS
 62
               3
  5
268
 10
-257.61445861252162
 20
-47.531925499339891
 30
0.0
 40
5.9999999999999716
 50
275.0
 51
359.99999999999784
  0
ARC
  8
0
  6
CONTINUOUS
 62
               3
  5
269
 10
-404.6144586125215
 20
-47.531925499339181
 30
0.0
 40
5.9999999999998854
 50
179.99999999999929
 51
264.99999999999972
  0
LINE
  8
0
  6
CONTINUOUS
 62
               3
  5
26A
 10
-433.68425818601611
 20
-28.599329603763053
 30
0.0
 11
-416.40505400357767
 21
-29.202732710018907
 31
0.0
  0
LINE
  8
0
  6
CONTINUOUS
 62
               3
  5
26B
 10
-435.61445919261109
 20
-26.531925499338385
 30
0.0
 11
-435.61445919261098
 21
-12.463303048953179
 31
0.0
  0
ARC
  8
0
  6
CONTINUOUS
 62
               3
  5
26C
 10
-433.61445919261098
 20
-12.463303048953179
 30
0.0
 40
2.0
 50
91.99999999999666
 51
179.99999999999935
  0
LINE
  8
0
  6
CONTINUOUS
 62
               3
  5
26D
 10
-433.68425818601588
 20
-10.464521394914982
 30
0.0
 11
-409.54439043257457
 21
-9.621538637535906
 31
0.0
  0
LINE
  8
0
  6
CONTINUOUS
 62
               3
  5
26E
 10
-241.11445861252193
 20
-21.106899127613175
 30
0.0
 11
-241.11445861252193
 21
-11.956951871066536
 31
0.0
  0
LINE
  8
0
  6
CONTINUOUS
 62
               3
  5
26F
 10
-252.61445861252193
 20
-9.6239854722972495
 30
0.0
 11
-243.0446596191168
 21
-9.9581702170283677
 31
0.0
  0
LINE
  8
0
  6
CONTINUOUS
 62
               3
  5
270
 10
-243.04465961911691
 20
-23.105680781651373
 30
0.0
 11
-245.8238555934025
 21
-23.202732443641779
 31
0.0
  0
ARC
  8
0
  6
CONTINUOUS
 62
               3
  5
271
 10
-408.61445861252298
 20
-36.531925499339366
 30
0.0
 40
2.0
 50
170.43764968683942
 51
179.99999999999935
  0
ARC
  8
0
  6
CONTINUOUS
 62
               3
  5
272
 10
-433.61445919261109
 20
-26.600547949724856
 30
0.0
 40
2.0
 50
179.9999999999996
 51
267.99999999999903
  0
ARC
  8
0
  6
CONTINUOUS
 62
               3
  5
273
 10
-243.11445861252193
 20
-21.106899127613175
 30
0.0
 40
2.0
 50
271.99999999999812
 51
359.9999999999992
  0
ARC
  8
0
  6
CONTINUOUS
 62
               3
  5
274
 10
-243.11445861252193
 20
-21.038276677227344
 30
0.0
 40
2.0
 50
269.99999999999937
 51
359.9999999999992
  0
LINE
  8
0
  6
CONTINUOUS
 62
               3
  5
275
 10
-106.31139919911837
 20
-390.89812626948043
 30
0.0
 11
-132.11445861252307
 21
-390.89812626948043
 31
0.0
  0
ARC
  8
0
  6
CONTINUOUS
 62
               3
  5
276
 10
-132.11445861252278
 20
-98.398126269479789
 30
0.0
 40
284.5
 50
181.27260887995243
 51
267.24760388639112
  0
ARC
  8
0
  6
CONTINUOUS
 62
               3
  5
277
 10
-132.11445861252278
 20
-98.398126269479789
 30
0.0
 40
63.5
 50
184.4459105052612
 51
256.5961149187624
  0
LINE
  8
0
  6
CONTINUOUS
 62
               3
  5
278
 10
-106.31139919911814
 20
-153.89812626947858
 30
0.0
 11
-132.11445861252307
 21
-153.89812626947858
 31
0.0
  0
ARC
  8
0
  6
CONTINUOUS
 62
               3
  5
279
 10
-253.61445861252193
 20
-58.8456339982678
 30
0.0
 40
6.0
 50
109.47122063530161
 51
179.9999999999996
  0
ARC
  8
0
  6
CONTINUOUS
 62
               3
  5
27A
 10
-408.61445861252196
 20
-58.845633998267431
 30
0.0
 40
6.0
 50
359.99999999999892
 51
430.5287793646969
  0
LINE
  8
0
  6
CONTINUOUS
 62
               3
  5
27B
 10
-402.61445861252196
 20
-58.845633998267459
 30
0.0
 11
-402.61445861252196
 21
-85.348093119680954
 31
0.0
  0
LINE
  8
0
  6
CONTINUOUS
 62
               3
  5
27C
 10
-259.61445861252196
 20
-58.8456339982678
 30
0.0
 11
-259.61445861252196
 21
-84.405765944568756
 31
0.0
  0
LINE
  8
0
  6
CONTINUOUS
 62
               3
  5
27D
 10
-352.77418566067286
 20
-320.5724377549771
 30
0.0
 11
-356.91060260296376
 21
-273.29297575856464
 31
0.0
  0
ARC
  8
0
  6
CONTINUOUS
 62
               3
  5
27E
 10
-358.90299199914273
 20
-273.46728724411048
 30
0.0
 40
2.0
 50
4.9999999999996891
 51
37.666306377976952
  0
LINE
  8
0
  6
CONTINUOUS
 62
               3
  5
27F
 10
-312.18001447655047
 20
-322.39812626948174
 30
0.0
 11
-308.20037514192711
 21
-322.39812626948174
 31
0.0
  0
ARC
  8
0
  6
CONTINUOUS
 62
               3
  5
280
 10
-308.20037514192518
 20
-324.39812626948333
 30
0.0
 40
2.0
 50
52.076373924755579
 51
89.999999999999758
  0
ARC
  8
0
  6
CONTINUOUS
 62
               3
  5
281
 10
-312.18001447655047
 20
-324.3981262694823
 30
0.0
 40
2.0
 50
89.999999999999758
 51
178.09084756706412
  0
LINE
  8
0
  6
CONTINUOUS
 62
               3
  5
282
 10
-345.18001447655149
 20
-352.39812626948162
 30
0.0
 11
-317.04890274849788
 21
-352.39812626948162
 31
0.0
  0
LINE
  8
0
  6
CONTINUOUS
 62
               3
  5
283
 10
-315.0500129345395
 20
-350.46475592994403
 30
0.0
 11
-314.17890429050874
 21
-324.33149660901915
 31
0.0
  0
LINE
  8
0
  6
CONTINUOUS
 62
               3
  5
284
 10
-350.78179626448934
 20
-322.39812626948174
 30
0.0
 11
-312.18001447655047
 21
-322.39812626948174
 31
0.0
  0
LINE
  8
0
  6
CONTINUOUS
 62
               3
  5
285
 10
-347.17890429050976
 20
-350.46475592995131
 30
0.0
 11
-348.05001293453972
 21
-324.33149660902097
 31
0.0
  0
ARC
  8
0
  6
CONTINUOUS
 62
               3
  5
286
 10
-350.04890274849811
 20
-324.3981262694823
 30
0.0
 40
2.0
 50
1.9091524328832694
 51
89.999999999999758
  0
LINE
  8
0
  6
CONTINUOUS
 62
               3
  5
287
 10
-336.11445861252389
 20
-322.39812626948174
 30
0.0
 11
-335.17890429050863
 21
-350.46475592994767
 31
0.0
  0
LINE
  8
0
  6
CONTINUOUS
 62
               3
  5
288
 10
-326.11445861252366
 20
-322.39812626948174
 30
0.0
 11
-327.05001293453938
 21
-350.46475592994767
 31
0.0
  0
ARC
  8
0
  6
CONTINUOUS
 62
               3
  5
289
 10
-245.61445861318745
 20
-29.199077405756356
 30
0.0
 40
6.0
 50
92.000000000000185
 51
179.9999999999996
  0
ARC
  8
0
  6
CONTINUOUS
 62
               3
  5
28A
 10
-416.61445098379272
 20
-35.19907767213347
 30
0.0
 40
6.0
 50
0.0
 51
87.999999999999403
  0
LINE
  8
0
  6
CONTINUOUS
 62
               3
  5
28B
 10
-83.166242626348065
 20
-152.39812626948017
 30
0.0
 11
-83.166242626348065
 21
-392.39812626947975
 31
0.0
  0
LINE
  8
0
  6
CONTINUOUS
 62
               3
  5
28C
 10
-83.517887755824944
 20
-402.46792526288425
 30
0.0
 11
-83.166242626348065
 21
-392.39812626947975
 31
0.0
  0
LINE
  8
0
  6
CONTINUOUS
 62
               3
  5
28D
 10
-83.517887755824944
 20
-402.46792526288425
 30
0.0
 11
-83.166242626348065
 21
-392.39812626947975
 31
0.0
  0
LINE
  8
0
  6
CONTINUOUS
 62
               3
  5
28E
 10
-96.18308106290894
 20
-140.39812626948196
 30
0.0
 11
-85.516669409862885
 21
-140.39812626948196
 31
0.0
  0
LINE
  8
0
  6
CONTINUOUS
 62
               3
  5
28F
 10
-140.11445861252307
 20
-161.89812626947901
 30
0.0
 11
-140.11445861252307
 21
-385.32160350595939
 31
0.0
  0
LINE
  8
0
  6
CONTINUOUS
 62
               3
  5
290
 10
-98.114458612523066
 20
-236.64999330257936
 30
0.0
 11
-98.114458612523066
 21
-272.39812626948151
 31
0.0
  0
LINE
  8
0
  6
CONTINUOUS
 62
               3
  5
291
 10
-104.11445861252301
 20
-153.89812626947864
 30
0.0
 11
-104.11445861252301
 21
-204.73961176922177
 31
0.0
  0
LINE
  8
0
  6
CONTINUOUS
 62
               3
  5
292
 10
-104.11445861252301
 20
-390.89812626948429
 30
0.0
 11
-104.11445861252301
 21
-340.05664076974119
 31
0.0
  0
LINE
  8
0
  6
CONTINUOUS
 62
               3
  5
293
 10
-104.11445861252301
 20
-390.89812626948429
 30
0.0
 11
-104.11445861252301
 21
-340.05664076974119
 31
0.0
  0
LINE
  8
0
  6
CONTINUOUS
 62
               3
  5
294
 10
-98.114458612523066
 20
-308.14625923638357
 30
0.0
 11
-98.114458612523009
 21
-272.39812626948139
 31
0.0
  0
LINE
  8
0
  6
CONTINUOUS
 62
               3
  5
295
 10
-96.183081062908883
 20
-404.39812626948105
 30
0.0
 11
-85.516669409862942
 21
-404.39812626948105
 31
0.0
  0
LINE
  8
0
  6
CONTINUOUS
 62
               3
  5
296
 10
-83.517887755824717
 20
-402.46792526288493
 30
0.0
 11
-83.166242626348065
 21
-392.39812626948276
 31
0.0
  0
LINE
  8
0
  6
CONTINUOUS
 62
               3
  5
297
 10
-83.517887755824717
 20
-142.32832727607646
 30
0.0
 11
-83.166242626348065
 21
-152.39812626948017
 31
0.0
  0
LINE
  8
0
  6
CONTINUOUS
 62
               3
  5
298
 10
-97.520805531163404
 20
-370.7764351935831
 30
0.0
 11
-98.114458612523066
 21
-308.14625923638357
 31
0.0
  0
LINE
  8
0
  6
CONTINUOUS
 62
               3
  5
299
 10
-98.077716766139105
 20
-403.03871627256046
 30
0.0
 11
-97.520805531163404
 21
-382.43358139959349
 31
0.0
  0
LINE
  8
0
  6
CONTINUOUS
 62
               3
  5
29A
 10
-98.181862716947052
 20
-142.32832727607465
 30
0.0
 11
-98.316272582965354
 21
-146.17732224309665
 31
0.0
  0
LINE
  8
0
  6
CONTINUOUS
 62
               3
  5
29B
 10
-98.181862716947109
 20
-402.46792526288857
 30
0.0
 11
-98.316272582965524
 21
-398.61893029586292
 31
0.0
  0
LINE
  8
0
  6
CONTINUOUS
 62
               3
  5
29C
 10
-98.081420069778147
 20
-141.76859547992581
 30
0.0
 11
-97.584949048188804
 21
-162.36267113936947
 31
0.0
  0
LINE
  8
0
  6
CONTINUOUS
 62
               3
  5
29D
 10
-97.584949048188804
 20
-174.01981734537986
 30
0.0
 11
-98.114458612523066
 21
-236.64999330257936
 31
0.0
  0
ARC
  8
0
  6
CONTINUOUS
 62
               3
  5
29E
 10
-358.90299199914728
 20
-273.46728724405995
 30
0.0
 40
2.0
 50
4.9999999999997318
 51
37.666306377968638
  0
ARC
  8
0
  6
CONTINUOUS
 62
               3
  5
29F
 10
-308.20037514192711
 20
-324.39812626947901
 30
0.0
 40
2.0
 50
52.076373924755053
 51
89.999999999999801
  0
ARC
  8
0
  6
CONTINUOUS
 62
               3
  5
2A0
 10
-350.78179626448934
 20
-320.39812626948174
 30
0.0
 40
2.0
 50
185.00000000000173
 51
269.99999999999937
  0
ARC
  8
0
  6
CONTINUOUS
 62
               3
  5
2A1
 10
-345.18001447655149
 20
-350.39812626948162
 30
0.0
 40
2.0
 50
181.90915243312145
 51
269.99999999999937
  0
ARC
  8
0
  6
CONTINUOUS
 62
               3
  5
2A2
 10
-317.04890274849788
 20
-350.39812626948162
 30
0.0
 40
2.0
 50
269.99999999999937
 51
358.09084756708575
  0
ARC
  8
0
  6
CONTINUOUS
 62
               3
  5
2A3
 10
-333.18001447655035
 20
-350.39812626948162
 30
0.0
 40
2.0
 50
181.90915243301728
 51
269.99999999999937
  0
ARC
  8
0
  6
CONTINUOUS
 62
               3
  5
2A4
 10
-329.04890274849777
 20
-350.39812626948162
 30
0.0
 40
2.0
 50
269.99999999999937
 51
358.09084756698161
  0
ARC
  8
0
  6
CONTINUOUS
 62
               3
  5
2A5
 10
-85.516669409862885
 20
-142.39812626948159
 30
0.0
 40
2.0
 50
2.0000000000036642
 51
89.999999999999801
  0
ARC
  8
0
  6
CONTINUOUS
 62
               3
  5
2A6
 10
-96.18308106290894
 20
-142.39812626948159
 30
0.0
 40
2.0
 50
89.999999999999801
 51
177.99999999994381
  0
ARC
  8
0
  6
CONTINUOUS
 62
               3
  5
2A7
 10
-96.183081062908883
 20
-402.39812626948105
 30
0.0
 40
2.0
 50
182.00000000007157
 51
269.99999999999937
  0
ARC
  8
0
  6
CONTINUOUS
 62
               3
  5
2A8
 10
-85.516669409862942
 20
-402.39812626948105
 30
0.0
 40
2.0
 50
269.99999999999937
 51
358.00000000003138
  0
ARC
  8
0
  6
CONTINUOUS
 62
               3
  5
2A9
 10
-243.11445861252193
 20
-11.956951871066536
 30
0.0
 40
2.0
 50
0.0
 51
87.999999999997769
  0
ARC
  8
0
  6
CONTINUOUS
 62
               3
  5
2AA
 10
-106.31139919911814
 20
-145.89812626947796
 30
0.0
 40
8.0
 50
269.99999999999937
 51
358.00000000000858
  0
ARC
  8
0
  6
CONTINUOUS
 62
               3
  5
2AB
 10
-132.11445861252307
 20
-161.89812626947901
 30
0.0
 40
8.0
 50
89.999999999999801
 51
143.52384515252152
  0
ARC
  8
0
  6
CONTINUOUS
 62
               3
  5
2AC
 10
-132.11445861252307
 20
-382.8981262694806
 30
0.0
 40
8.0
 50
208.61426065814518
 51
269.99999999999937
  0
ARC
  8
0
  6
CONTINUOUS
 62
               3
  5
2AD
 10
-146.16027947675391
 20
-390.56069217457639
 30
0.0
 40
8.0
 50
28.614260658147561
 51
87.247603886391587
  0
ARC
  8
0
  6
CONTINUOUS
 62
               3
  5
2AE
 10
-144.98012808794928
 20
-152.38631524585756
 30
0.0
 40
8.0
 50
256.59611491876234
 51
323.52384515252118
  0
ARC
  8
0
  6
CONTINUOUS
 62
               3
  5
2AF
 10
-106.31139919911837
 20
-398.8981262694798
 30
0.0
 40
8.0
 50
1.9999999999775826
 51
89.999999999999801
  0
LINE
  8
0
  6
CONTINUOUS
 62
               3
  5
2B0
 10
-405.38646456104175
 20
-90.405765944568756
 30
0.0
 11
-207.67331470194424
 21
-90.405765944568756
 31
0.0
  0
ARC
  8
0
  6
CONTINUOUS
 62
               3
  5
2B1
 10
-209.38125785731026
 20
-104.40576594456877
 30
0.0
 40
14.0
 50
4.4459105052616152
 51
89.999999999999801
  0
ARC
  8
0
  6
CONTINUOUS
 62
               3
  5
2B2
 10
-253.61445861252193
 20
-84.405765944568756
 30
0.0
 40
6.0
 50
179.9999999999996
 51
269.99999999999937
  0
ARC
  8
0
  6
CONTINUOUS
 62
               3
  5
2B3
 10
-402.5477373811209
 20
-104.40576594456877
 30
0.0
 40
14.0
 50
107.65808535926317
 51
181.2726088799524
  0
ARC
  8
0
  6
CONTINUOUS
 62
               3
  5
2B4
 10
-408.61445861252196
 20
-85.348093119680954
 30
0.0
 40
6.0
 50
287.65808535926112
 51
359.9999999999992
  0
LINE
  8
0
  6
CONTINUOUS
 62
               3
  5
2B5
 10
300.16933067046352
 20
-53.531925499339692
 30
0.0
 11
153.16933067078409
 21
-53.531925499339266
 31
0.0
  0
ARC
  8
0
  6
CONTINUOUS
 62
               3
  5
2B6
 10
300.16933067046375
 20
-47.531925499339692
 30
0.0
 40
6.0
 50
274.78019184719608
 51
359.99999999999886
  0
ARC
  8
0
  6
CONTINUOUS
 62
               3
  5
2B7
 10
153.16933067078398
 20
-47.53192549933928
 30
0.0
 40
6.0
 50
179.9999999999996
 51
265.21980815280239
  0
LINE
  8
0
  6
CONTINUOUS
 62
               3
  5
2B8
 10
94.669330670624021
 20
-272.39812972087287
 30
0.0
 11
94.669330670624021
 21
-272.3981292873238
 31
0.0
  0
LINE
  8
0
  6
CONTINUOUS
 62
               3
  5
2B9
 10
94.669330670624021
 20
-272.3981292873238
 30
0.0
 11
94.669330670624021
 21
-272.39812885377484
 31
0.0
  0
LINE
  8
0
  6
CONTINUOUS
 62
               3
  5
2BA
 10
94.669330670624021
 20
-272.39812885377484
 30
0.0
 11
94.669330670624248
 21
-272.39812842022582
 31
0.0
  0
LINE
  8
0
  6
CONTINUOUS
 62
               3
  5
2BB
 10
94.669330670624248
 20
-272.39812842022582
 30
0.0
 11
94.669330670624248
 21
-272.3981279866768
 31
0.0
  0
LINE
  8
0
  6
CONTINUOUS
 62
               3
  5
2BC
 10
94.669330670624248
 20
-272.3981279866768
 30
0.0
 11
94.669330670624475
 21
-272.39812755312778
 31
0.0
  0
LINE
  8
0
  6
CONTINUOUS
 62
               3
  5
2BD
 10
94.669330670624475
 20
-272.39812755312778
 30
0.0
 11
94.669330670624475
 21
-272.39812711957876
 31
0.0
  0
LINE
  8
0
  6
CONTINUOUS
 62
               3
  5
2BE
 10
94.669330670624475
 20
-272.39812711957876
 30
0.0
 11
94.669330670624475
 21
-272.3981266860298
 31
0.0
  0
LINE
  8
0
  6
CONTINUOUS
 62
               3
  5
2BF
 10
94.669330670624475
 20
-272.3981266860298
 30
0.0
 11
94.669330670624703
 21
-272.39812625248084
 31
0.0
  0
LINE
  8
0
  6
CONTINUOUS
 62
               3
  5
2C0
 10
94.669330670624703
 20
-272.39812625248084
 30
0.0
 11
94.669330670624475
 21
-272.39812581893176
 31
0.0
  0
LINE
  8
0
  6
CONTINUOUS
 62
               3
  5
2C1
 10
94.669330670624475
 20
-272.39812581893176
 30
0.0
 11
94.669330670624475
 21
-272.3981253853828
 31
0.0
  0
LINE
  8
0
  6
CONTINUOUS
 62
               3
  5
2C2
 10
94.669330670624475
 20
-272.3981253853828
 30
0.0
 11
94.669330670624475
 21
-272.39812495183372
 31
0.0
  0
LINE
  8
0
  6
CONTINUOUS
 62
               3
  5
2C3
 10
94.669330670624475
 20
-272.39812495183372
 30
0.0
 11
94.669330670624248
 21
-272.39812451828476
 31
0.0
  0
LINE
  8
0
  6
CONTINUOUS
 62
               3
  5
2C4
 10
94.669330670624248
 20
-272.39812451828476
 30
0.0
 11
94.669330670624248
 21
-272.3981240847358
 31
0.0
  0
LINE
  8
0
  6
CONTINUOUS
 62
               3
  5
2C5
 10
94.669330670624248
 20
-272.3981240847358
 30
0.0
 11
94.669330670624021
 21
-272.39812365118672
 31
0.0
  0
LINE
  8
0
  6
CONTINUOUS
 62
               3
  5
2C6
 10
94.669330670624021
 20
-272.39812365118672
 30
0.0
 11
94.669330670624021
 21
-272.39812321763776
 31
0.0
  0
LINE
  8
0
  6
CONTINUOUS
 62
               3
  5
2C7
 10
94.669330670624021
 20
-272.39812321763776
 30
0.0
 11
94.669330670624021
 21
-272.39812278408874
 31
0.0
  0
LINE
  8
0
  6
CONTINUOUS
 62
               3
  5
2C8
 10
358.66933067062394
 20
-272.39812972087287
 30
0.0
 11
358.66933067062394
 21
-272.3981292873238
 31
0.0
  0
LINE
  8
0
  6
CONTINUOUS
 62
               3
  5
2C9
 10
358.66933067062394
 20
-272.3981292873238
 30
0.0
 11
358.66933067062382
 21
-272.39812885377484
 31
0.0
  0
LINE
  8
0
  6
CONTINUOUS
 62
               3
  5
2CA
 10
358.66933067062382
 20
-272.39812885377484
 30
0.0
 11
358.66933067062382
 21
-272.39812842022582
 31
0.0
  0
LINE
  8
0
  6
CONTINUOUS
 62
               3
  5
2CB
 10
358.66933067062382
 20
-272.39812842022582
 30
0.0
 11
358.66933067062382
 21
-272.3981279866768
 31
0.0
  0
LINE
  8
0
  6
CONTINUOUS
 62
               3
  5
2CC
 10
358.66933067062382
 20
-272.3981279866768
 30
0.0
 11
358.66933067062371
 21
-272.39812755312778
 31
0.0
  0
LINE
  8
0
  6
CONTINUOUS
 62
               3
  5
2CD
 10
358.66933067062371
 20
-272.39812755312778
 30
0.0
 11
358.66933067062359
 21
-272.39812711957876
 31
0.0
  0
LINE
  8
0
  6
CONTINUOUS
 62
               3
  5
2CE
 10
358.66933067062359
 20
-272.39812711957876
 30
0.0
 11
358.66933067062359
 21
-272.3981266860298
 31
0.0
  0
LINE
  8
0
  6
CONTINUOUS
 62
               3
  5
2CF
 10
358.66933067062359
 20
-272.3981266860298
 30
0.0
 11
358.66933067062359
 21
-272.39812625248084
 31
0.0
  0
LINE
  8
0
  6
CONTINUOUS
 62
               3
  5
2D0
 10
358.66933067062359
 20
-272.39812625248084
 30
0.0
 11
358.66933067062359
 21
-272.39812581893176
 31
0.0
  0
LINE
  8
0
  6
CONTINUOUS
 62
               3
  5
2D1
 10
358.66933067062359
 20
-272.39812581893176
 30
0.0
 11
358.66933067062382
 21
-272.3981253853828
 31
0.0
  0
LINE
  8
0
  6
CONTINUOUS
 62
               3
  5
2D2
 10
358.66933067062382
 20
-272.3981253853828
 30
0.0
 11
358.66933067062382
 21
-272.39812495183372
 31
0.0
  0
LINE
  8
0
  6
CONTINUOUS
 62
               3
  5
2D3
 10
358.66933067062382
 20
-272.39812495183372
 30
0.0
 11
358.66933067062382
 21
-272.39812451828476
 31
0.0
  0
LINE
  8
0
  6
CONTINUOUS
 62
               3
  5
2D4
 10
358.66933067062382
 20
-272.39812451828476
 30
0.0
 11
358.66933067062382
 21
-272.3981240847358
 31
0.0
  0
LINE
  8
0
  6
CONTINUOUS
 62
               3
  5
2D5
 10
358.66933067062382
 20
-272.3981240847358
 30
0.0
 11
358.66933067062394
 21
-272.39812365118672
 31
0.0
  0
LINE
  8
0
  6
CONTINUOUS
 62
               3
  5
2D6
 10
358.66933067062394
 20
-272.39812365118672
 30
0.0
 11
358.66933067062394
 21
-272.39812321763776
 31
0.0
  0
LINE
  8
0
  6
CONTINUOUS
 62
               3
  5
2D7
 10
358.66933067062394
 20
-272.39812321763776
 30
0.0
 11
358.66933067062394
 21
-272.39812278408874
 31
0.0
  0
LINE
  8
0
  6
CONTINUOUS
 62
               3
  5
2D8
 10
99.602139825069088
 20
-308.14625923638454
 30
0.0
 11
117.22204503395821
 21
-370.77643519358395
 31
0.0
  0
LINE
  8
0
  6
CONTINUOUS
 62
               3
  5
2D9
 10
128.29102174652209
 20
-381.84541190614794
 30
0.0
 11
190.92119770372116
 21
-399.46531711503684
 31
0.0
  0
LINE
  8
0
  6
CONTINUOUS
 62
               3
  5
2DA
 10
117.22204503395821
 20
-174.01981734537989
 30
0.0
 11
99.602139825069088
 21
-236.64999330257939
 31
0.0
  0
LINE
  8
0
  6
CONTINUOUS
 62
               3
  5
2DB
 10
325.04763959472609
 20
-381.84541190614794
 30
0.0
 11
262.41746363752623
 21
-399.46531711503684
 31
0.0
  0
LINE
  8
0
  6
CONTINUOUS
 62
               3
  5
2DC
 10
336.1166163072902
 20
-174.01981734537989
 30
0.0
 11
353.73652151617875
 21
-236.64999330257888
 31
0.0
  0
LINE
  8
0
  6
CONTINUOUS
 62
               3
  5
2DD
 10
353.73652151617898
 20
-308.14625923638454
 30
0.0
 11
336.1166163072902
 21
-370.77643519358395
 31
0.0
  0
LINE
  8
0
  6
CONTINUOUS
 62
               3
  5
2DE
 10
262.41746363752623
 20
-145.33093542392706
 30
0.0
 11
325.04763959472609
 21
-162.95084063281595
 31
0.0
  0
LINE
  8
0
  6
CONTINUOUS
 62
               3
  5
2DF
 10
190.92119770372116
 20
-145.33093542392706
 30
0.0
 11
128.29102174652209
 21
-162.95084063281595
 31
0.0
  0
ARC
  8
0
  6
CONTINUOUS
 62
               3
  5
2E0
 10
226.66933067062425
 20
-272.39812626948907
 30
0.0
 40
132.00000000000708
 50
89.999999999999901
 51
105.71301918365918
  0
ARC
  8
0
  6
CONTINUOUS
 62
               3
  5
2E1
 10
226.66933067062948
 20
-272.39812626948253
 30
0.0
 40
132.00000000000546
 50
164.28698081634002
 51
179.9999984871333
  0
ARC
  8
0
  6
CONTINUOUS
 62
               3
  5
2E2
 10
226.66933067063312
 20
-272.39812626948088
 30
0.0
 40
132.00000000000918
 50
180.00000149810714
 51
195.71301918365896
  0
ARC
  8
0
  6
CONTINUOUS
 62
               3
  5
2E3
 10
226.6693306706247
 20
-272.39812626947486
 30
0.0
 40
132.00000000000711
 50
254.28698081633982
 51
269.99999999999909
  0
ARC
  8
0
  6
CONTINUOUS
 62
               3
  5
2E4
 10
132.62412877281346
 20
-178.35292437167112
 30
0.0
 40
16.000000000000053
 50
105.71301918366029
 51
164.28698081633968
  0
ARC
  8
0
  6
CONTINUOUS
 62
               3
  5
2E5
 10
132.62412877281346
 20
-366.4433281672928
 30
0.0
 40
16.000000000000089
 50
195.71301918365941
 51
254.28698081633894
  0
ARC
  8
0
  6
CONTINUOUS
 62
               3
  5
2E6
 10
320.71453256843483
 20
-366.44332816729258
 30
0.0
 40
16.000000000000249
 50
285.7130191836593
 51
344.28698081633877
  0
ARC
  8
0
  6
CONTINUOUS
 62
               3
  5
2E7
 10
320.71453256843495
 20
-178.35292437167132
 30
0.0
 40
16.000000000000203
 50
15.713019183660604
 51
74.286980816340289
  0
ARC
  8
0
  6
CONTINUOUS
 62
               3
  5
2E8
 10
226.66933067061856
 20
-272.39812626948247
 30
0.0
 40
132.00000000000546
 50
0.0000015128663069
 51
15.71301918365959
  0
ARC
  8
0
  6
CONTINUOUS
 62
               3
  5
2E9
 10
226.6693306706147
 20
-272.39812626948122
 30
0.0
 40
132.00000000000915
 50
344.28698081634002
 51
359.99999850189181
  0
ARC
  8
0
  6
CONTINUOUS
 62
               3
  5
2EA
 10
226.66933067062288
 20
-272.3981262694773
 30
0.0
 40
132.00000000000469
 50
269.99999999999989
 51
285.71301918365918
  0
ARC
  8
0
  6
CONTINUOUS
 62
               3
  5
2EB
 10
226.66933067062334
 20
-272.39812626948657
 30
0.0
 40
132.00000000000458
 50
74.286980816340233
 51
89.999999999999503
  0
ARC
  8
0
  6
CONTINUOUS
 62
               3
  5
2EC
 10
226.66933067062402
 20
-272.39812626948196
 30
0.0
 40
110.5
 50
179.9999999999996
 51
359.9999999999992
  0
ARC
  8
0
  6
CONTINUOUS
 62
               3
  5
2ED
 10
226.66933067062402
 20
-272.39812626948196
 30
0.0
 40
110.5
 50
0.0
 51
179.9999999999996
  0
LINE
  8
0
  6
CONTINUOUS
 62
               3
  5
2EE
 10
147.16933067078398
 20
-36.49018624243962
 30
0.0
 11
147.16933067078398
 21
-47.53192549933928
 31
0.0
  0
LINE
  8
0
  6
CONTINUOUS
 62
               3
  5
2EF
 10
148.16933067062379
 20
-10.490186242439393
 30
0.0
 11
305.16933067062405
 21
-10.490186242439449
 31
0.0
  0
LINE
  8
0
  6
CONTINUOUS
 62
               3
  5
2F0
 10
319.04433067062359
 20
-27.043334369523663
 30
0.0
 11
319.04433067062405
 21
-12.90608946875129
 31
0.0
  0
LINE
  8
0
  6
CONTINUOUS
 62
               3
  5
2F1
 10
141.91275092990671
 20
-28.974711919137462
 30
0.0
 11
206.66933067062379
 21
-28.974711919137505
 31
0.0
  0
LINE
  8
0
  6
CONTINUOUS
 62
               3
  5
2F2
 10
144.34933068467998
 20
-22.97471191913742
 30
0.0
 11
308.98933065656854
 21
-22.974711919137533
 31
0.0
  0
LINE
  8
0
  6
CONTINUOUS
 62
               3
  5
2F3
 10
317.11412966402918
 20
-10.907307814713079
 30
0.0
 11
305.16933067062405
 21
-10.490186242439449
 31
0.0
  0
ARC
  8
0
  6
CONTINUOUS
 62
               3
  5
2F4
 10
317.04433067062405
 20
-12.90608946875129
 30
0.0
 40
2.0
 50
359.99999999999812
 51
447.99999999999892
  0
LINE
  8
0
  6
CONTINUOUS
 62
               3
  5
2F5
 10
317.11412966402872
 20
-29.042116023561832
 30
0.0
 11
311.85877273402383
 21
-29.225637131511817
 31
0.0
  0
ARC
  8
0
  6
CONTINUOUS
 62
               3
  5
2F6
 10
317.04433067062359
 20
-27.043334369523663
 30
0.0
 40
2.0
 50
271.9999999999992
 51
359.99999999999915
  0
LINE
  8
0
  6
CONTINUOUS
 62
               3
  5
2F7
 10
134.29433067062402
 20
-27.043334369523606
 30
0.0
 11
134.29433067062379
 21
-12.906089468751233
 31
0.0
  0
LINE
  8
0
  6
CONTINUOUS
 62
               3
  5
2F8
 10
136.22453167721889
 20
-10.907307814713022
 30
0.0
 11
148.16933067062379
 21
-10.490186242439393
 31
0.0
  0
ARC
  8
0
  6
CONTINUOUS
 62
               3
  5
2F9
 10
136.29433067062379
 20
-12.906089468751233
 30
0.0
 40
2.0
 50
91.999999999999886
 51
180.00000000000065
  0
ARC
  8
0
  6
CONTINUOUS
 62
               3
  5
2FA
 10
136.29433067062402
 20
-27.043334369523606
 30
0.0
 40
2.0
 50
179.99999999999966
 51
267.9999999999996
  0
LINE
  8
0
  6
CONTINUOUS
 62
               3
  5
2FB
 10
147.16933067062362
 20
-46.490186242439634
 30
0.0
 11
147.16933067062362
 21
-36.49018624243962
 31
0.0
  0
ARC
  8
0
  6
CONTINUOUS
 62
               3
  5
2FC
 10
149.16933067062362
 20
-34.669941112604945
 30
0.0
 40
2.0
 50
170.87867759270677
 51
179.9999999999996
  0
LINE
  8
0
  6
CONTINUOUS
 62
               3
  5
2FD
 10
306.16933067046386
 20
-36.490186242439961
 30
0.0
 11
306.16933067046381
 21
-47.531925499339621
 31
0.0
  0
ARC
  8
0
  6
CONTINUOUS
 62
               3
  5
2FE
 10
304.16933067062422
 20
-34.669941112605287
 30
0.0
 40
2.0
 50
359.99999999999892
 51
369.12132240729176
  0
LINE
  8
0
  6
CONTINUOUS
 62
               3
  5
2FF
 10
311.42591041134119
 20
-28.974711919137832
 30
0.0
 11
246.66933067062405
 21
-28.974711919137576
 31
0.0
  0
LINE
  8
0
  6
CONTINUOUS
 62
               3
  5
300
 10
324.38951106909099
 20
-98.947534252056172
 30
0.0
 11
226.8436421561193
 21
-90.413376548385301
 31
0.0
  0
LINE
  8
0
  6
CONTINUOUS
 62
               3
  5
301
 10
226.49501918512868
 20
-90.413376548385301
 30
0.0
 11
128.94915027215649
 21
-98.947534252055732
 31
0.0
  0
LINE
  8
0
  6
CONTINUOUS
 62
               3
  5
302
 10
116.16933067062365
 20
-112.89426002534012
 30
0.0
 11
116.1693306706234
 21
-177.76170386670938
 31
0.0
  0
LINE
  8
0
  6
CONTINUOUS
 62
               3
  5
303
 10
298.16933067062394
 20
-58.845633998267829
 30
0.0
 11
298.16933067062394
 21
-91.155578667481109
 31
0.0
  0
ARC
  8
0
  6
CONTINUOUS
 62
               3
  5
304
 10
304.16933067062394
 20
-58.845633998267829
 30
0.0
 40
6.0
 50
109.47122063530161
 51
179.9999999999996
  0
LINE
  8
0
  6
CONTINUOUS
 62
               3
  5
305
 10
155.16933067062382
 20
-58.845633998267488
 30
0.0
 11
155.16933067062382
 21
-90.398126269482077
 31
0.0
  0
ARC
  8
0
  6
CONTINUOUS
 62
               3
  5
306
 10
149.16933067062382
 20
-58.845633998267459
 30
0.0
 40
6.0
 50
359.99999999999892
 51
430.5287793646969
  0
ARC
  8
0
  6
CONTINUOUS
 62
               3
  5
307
 10
226.66933067062399
 20
-92.405765944568785
 30
0.0
 40
2.0
 50
84.999999999999815
 51
94.999999999999602
  0
CIRCLE
  8
0
  6
CONTINUOUS
 62
               3
  5
308
 10
226.66933067062402
 20
-272.39812626948134
 30
0.0
 40
102.5
  0
ARC
  8
0
  6
CONTINUOUS
 62
               3
  5
309
 10
149.16933067062382
 20
-91.155578667480768
 30
0.0
 40
6.0
 50
274.99999999999903
 51
359.9999999999992
  0
ARC
  8
0
  6
CONTINUOUS
 62
               3
  5
30A
 10
304.16933067062394
 20
-91.155578667481123
 30
0.0
 40
6.0
 50
179.9999999999996
 51
264.99999999999943
  0
ARC
  8
0
  6
CONTINUOUS
 62
               3
  5
30B
 10
130.16933067062365
 20
-112.89426002534017
 30
0.0
 40
14.0
 50
94.999999999999474
 51
179.9999999999996
  0
ARC
  8
0
  6
CONTINUOUS
 62
               3
  5
30C
 10
323.16933067062376
 20
-112.8942600253406
 30
0.0
 40
14.0
 50
0.0
 51
84.999999999999787
  0
LINE
  8
0
  6
CONTINUOUS
 62
               3
  5
30D
 10
337.16933067062376
 20
-112.8942600253406
 30
0.0
 11
337.16933067062376
 21
-177.76170386670989
 31
0.0
  0
ARC
  8
0
  6
CONTINUOUS
 62
               3
  5
30E
 10
-331.11445861252173
 20
309.36810604493991
 30
0.0
 40
90.000000000000099
 50
332.88320949579668
 51
387.11679050420167
  0
ARC
  8
0
  6
CONTINUOUS
 62
               3
  5
30F
 10
-331.11445861252173
 20
309.36810604493991
 30
0.0
 40
90.000000000000099
 50
92.883209495797075
 51
147.11679050420216
  0
ARC
  8
0
  6
CONTINUOUS
 62
               3
  5
310
 10
-331.11445861252173
 20
309.36810604493991
 30
0.0
 40
90.000000000000099
 50
212.88320949579699
 51
267.11679050420213
  0
ARC
  8
0
  6
CONTINUOUS
 62
               3
  5
311
 10
-285.86445861252173
 20
230.99280700244822
 30
0.0
 40
14.0
 50
267.11679050420213
 51
332.88320949579679
  0
ARC
  8
0
  6
CONTINUOUS
 62
               3
  5
312
 10
-285.86445861252173
 20
387.7434050874316
 30
0.0
 40
13.999999999999998
 50
27.116790504202651
 51
92.883209495797303
  0
ARC
  8
0
  6
CONTINUOUS
 62
               3
  5
313
 10
-421.61445861252173
 20
309.36810604493991
 30
0.0
 40
14.0
 50
147.11679050420236
 51
212.88320949579702
  0
LINE
  8
0
  6
CONTINUOUS
 62
               3
  5
314
 10
-86.114458612524686
 20
177.36810604494065
 30
0.0
 11
-98.372465909051897
 21
177.36810604494065
 31
0.0
  0
LINE
  8
0
  6
CONTINUOUS
 62
               3
  5
315
 10
-100.36485530523541
 20
179.19379455944534
 30
0.0
 11
-100.74731702209206
 21
183.56535198692029
 31
0.0
  0
ARC
  8
0
  6
CONTINUOUS
 62
               3
  5
316
 10
-98.372465909051897
 20
179.36810604494065
 30
0.0
 40
2.0
 50
185.00000000002501
 51
269.99999999999937
  0
LINE
  8
0
  6
CONTINUOUS
 62
               3
  5
317
 10
-86.114458612524686
 20
441.36810604493934
 30
0.0
 11
-98.372465909051783
 21
441.36810604493917
 31
0.0
  0
LINE
  8
0
  6
CONTINUOUS
 62
               3
  5
318
 10
-100.3648553052353
 20
439.54241753043453
 30
0.0
 11
-100.74731702209183
 21
435.170860102961
 31
0.0
  0
ARC
  8
0
  6
CONTINUOUS
 62
               3
  5
319
 10
-98.372465909051783
 20
439.36810604493922
 30
0.0
 40
2.0
 50
89.999999999999773
 51
174.99999999997414
  0
LINE
  8
0
  6
CONTINUOUS
 62
               3
  5
31A
 10
-100.20512825708673
 20
178.56726353976535
 30
0.0
 11
-100.20512825708673
 21
199.92082040822902
 31
0.0
  0
LINE
  8
0
  6
CONTINUOUS
 62
               3
  5
31B
 10
-100.20512825708667
 20
418.81539168160606
 30
0.0
 11
-100.20512825708667
 21
440.16894855011441
 31
0.0
  0
LINE
  8
0
  6
CONTINUOUS
 62
               3
  5
31C
 10
-273.40334884450863
 20
224.61152630422384
 30
0.0
 11
-251.00732438958082
 21
268.34558727064075
 31
0.0
  0
LINE
  8
0
  6
CONTINUOUS
 62
               3
  5
31D
 10
-335.64148233822516
 20
219.48203339635359
 30
0.0
 11
-286.56866230318678
 21
217.01052903489034
 31
0.0
  0
LINE
  8
0
  6
CONTINUOUS
 62
               3
  5
31E
 10
-251.00732438958076
 20
350.39062481923906
 30
0.0
 11
-273.40334884450874
 21
394.12468578565586
 31
0.0
  0
LINE
  8
0
  6
CONTINUOUS
 62
               3
  5
31F
 10
-286.56866230318678
 20
401.72568305498953
 30
0.0
 11
-335.64148233822516
 21
399.25417869352611
 31
0.0
  0
LINE
  8
0
  6
CONTINUOUS
 62
               3
  5
320
 10
-406.69456910975941
 20
358.23165991922707
 30
0.0
 11
-433.37136468986978
 21
316.96910331427347
 31
0.0
  0
LINE
  8
0
  6
CONTINUOUS
 62
               3
  5
321
 10
-433.37136468987001
 20
301.76710877560635
 30
0.0
 11
-406.69456910975941
 21
260.5045521706528
 31
0.0
  0
ARC
  8
0
  6
CONTINUOUS
 62
               3
  5
322
 10
-331.11445861252173
 20
309.36810604494002
 30
0.0
 40
62.5
 50
359.9999999999992
 51
539.99999999999875
  0
ARC
  8
0
  6
CONTINUOUS
 62
               3
  5
323
 10
-331.11445861252173
 20
309.36810604494002
 30
0.0
 40
62.5
 50
179.9999999999996
 51
359.9999999999992
  0
ARC
  8
0
  6
CONTINUOUS
 62
               3
  5
324
 10
-331.11445861252173
 20
309.36810604494002
 30
0.0
 40
71.5
 50
359.9999999999992
 51
539.99999999999875
  0
ARC
  8
0
  6
CONTINUOUS
 62
               3
  5
325
 10
-331.11445861252173
 20
309.36810604494002
 30
0.0
 40
71.5
 50
179.9999999999996
 51
359.9999999999992
  0
LINE
  8
0
  6
CONTINUOUS
 62
               3
  5
326
 10
-140.1144586125217
 20
422.41810573587486
 30
0.0
 11
-140.11445861252176
 21
196.31810635400552
 31
0.0
  0
LINE
  8
0
  6
CONTINUOUS
 62
               3
  5
327
 10
-100.20512825708673
 20
210.98979712083803
 30
0.0
 11
-100.20512825708667
 21
407.74641496900449
 31
0.0
  0
LINE
  8
0
  6
CONTINUOUS
 62
               3
  5
328
 10
-108.71687460682611
 20
190.86810604493974
 30
0.0
 11
-132.11445861252176
 21
190.86810604493974
 31
0.0
  0
LINE
  8
0
  6
CONTINUOUS
 62
               3
  5
329
 10
-108.71687460682583
 20
427.86810604494144
 30
0.0
 11
-132.1144586125217
 21
427.86810604494144
 31
0.0
  0
LINE
  8
0
  6
CONTINUOUS
 62
               3
  5
32A
 10
-145.97086507307333
 20
198.86810604494042
 30
0.0
 11
-309.50747446185699
 21
198.86810604494025
 31
0.0
  0
ARC
  8
0
  6
CONTINUOUS
 62
               3
  5
32B
 10
-306.11445861252173
 20
309.36810604494025
 30
0.0
 40
110.49999999999994
 50
211.01206550656758
 51
508.98793449343231
  0
ARC
  8
0
  6
CONTINUOUS
 62
               3
  5
32C
 10
-132.1144586125217
 20
419.86810604494133
 30
0.0
 40
8.0
 50
89.999999999999801
 51
150.0000000000002
  0
ARC
  8
0
  6
CONTINUOUS
 62
               3
  5
32D
 10
-145.9708650730727
 20
427.86810604494059
 30
0.0
 40
8.0
 50
269.99999999999937
 51
330.00000000000324
  0
ARC
  8
0
  6
CONTINUOUS
 62
               3
  5
32E
 10
-132.11445861252176
 20
198.86810604493974
 30
0.0
 40
8.0
 50
210.00000000000759
 51
269.99999999999937
  0
ARC
  8
0
  6
CONTINUOUS
 62
               3
  5
32F
 10
-145.97086507307333
 20
190.86810604494042
 30
0.0
 40
8.0
 50
29.999999999985651
 51
89.999999999999801
  0
LINE
  8
0
  6
CONTINUOUS
 62
               3
  5
330
 10
-273.18536914945969
 20
420.86804403208225
 30
0.0
 11
-339.25828894876497
 21
420.86804403208225
 31
0.0
  0
LINE
  8
0
  6
CONTINUOUS
 62
               3
  5
331
 10
-271.20483301197658
 20
419.14639023400207
 30
0.0
 11
-270.98071603992469
 21
417.55171511679191
 31
0.0
  0
LINE
  8
0
  6
CONTINUOUS
 62
               3
  5
332
 10
-341.2388250862482
 20
419.14639023400161
 30
0.0
 11
-341.4749888233963
 21
417.46599792917311
 31
0.0
  0
ARC
  8
0
  6
CONTINUOUS
 62
               3
  5
333
 10
-265.0391076274766
 20
418.38675372255204
 30
0.0
 40
6.0
 50
188.00000000000034
 51
249.35491423286047
  0
ARC
  8
0
  6
CONTINUOUS
 62
               3
  5
334
 10
-347.41659723584814
 20
418.30103653493381
 30
0.0
 40
6.0
 50
290.76432298431183
 51
351.99999999999847
  0
LINE
  8
0
  6
CONTINUOUS
 62
               3
  5
335
 10
-145.9708650730727
 20
419.86810604494053
 30
0.0
 11
-271.45335414651129
 21
419.86810604494042
 31
0.0
  0
LINE
  8
0
  6
CONTINUOUS
 62
               3
  5
336
 10
-306.11445861252184
 20
419.8681060449403
 30
0.0
 11
-309.50747446185733
 21
419.8681060449403
 31
0.0
  0
ARC
  8
0
  6
CONTINUOUS
 62
               3
  5
337
 10
-273.18536914945969
 20
418.86804403208237
 30
0.0
 40
2.0
 50
7.9999999999877227
 51
89.999999999999801
  0
ARC
  8
0
  6
CONTINUOUS
 62
               3
  5
338
 10
-339.25828894876497
 20
418.86804403208225
 30
0.0
 40
2.0
 50
89.999999999999801
 51
172.00000000002177
  0
ARC
  8
0
  6
CONTINUOUS
 62
               3
  5
339
 10
-108.71687460682611
 20
182.86810604493974
 30
0.0
 40
8.0
 50
4.9999999999948583
 51
89.999999999999801
  0
ARC
  8
0
  6
CONTINUOUS
 62
               3
  5
33A
 10
-108.71687460682583
 20
435.86810604494144
 30
0.0
 40
8.0
 50
269.99999999999937
 51
355.00000000000512
  0
LINE
  8
0
  6
CONTINUOUS
 62
               3
  5
33B
 10
-51.705770053730816
 20
-150.89812626948009
 30
0.0
 11
-51.705770053730816
 21
-393.89812626948003
 31
0.0
  0
LINE
  8
0
  6
CONTINUOUS
 62
               3
  5
33C
 10
-71.705770053730816
 20
-140.3981262694802
 30
0.0
 11
-71.705770053730816
 21
-404.39812626947997
 31
0.0
  0
LINE
  8
0
  6
CONTINUOUS
 62
               3
  5
33D
 10
-71.705770053730816
 20
-140.3981262694802
 30
0.0
 11
-58.705770053730845
 21
-140.3981262694802
 31
0.0
  0
LINE
  8
0
  6
CONTINUOUS
 62
               3
  5
33E
 10
-58.705770053730845
 20
-140.3981262694802
 30
0.0
 11
-51.705770053730816
 21
-150.89812626948009
 31
0.0
  0
LINE
  8
0
  6
CONTINUOUS
 62
               3
  5
33F
 10
-71.705770053730816
 20
-404.39812626947997
 30
0.0
 11
-58.705770053730845
 21
-404.39812626947997
 31
0.0
  0
LINE
  8
0
  6
CONTINUOUS
 62
               3
  5
340
 10
-58.705770053730845
 20
-404.39812626947997
 30
0.0
 11
-51.705770053730816
 21
-393.89812626948003
 31
0.0
  0
LINE
  8
0
  6
CONTINUOUS
 62
               3
  5
341
 10
-51.705770053730816
 20
430.86810604493991
 30
0.0
 11
-51.705770053730816
 21
187.86810604493996
 31
0.0
  0
LINE
  8
0
  6
CONTINUOUS
 62
               3
  5
342
 10
-71.705770053730816
 20
441.36810604493979
 30
0.0
 11
-71.705770053730816
 21
177.36810604494002
 31
0.0
  0
LINE
  8
0
  6
CONTINUOUS
 62
               3
  5
343
 10
-71.705770053730816
 20
441.36810604493979
 30
0.0
 11
-58.705770053730845
 21
441.36810604493979
 31
0.0
  0
LINE
  8
0
  6
CONTINUOUS
 62
               3
  5
344
 10
-58.705770053730845
 20
441.36810604493979
 30
0.0
 11
-51.705770053730816
 21
430.86810604493991
 31
0.0
  0
LINE
  8
0
  6
CONTINUOUS
 62
               3
  5
345
 10
-71.705770053730816
 20
177.36810604494002
 30
0.0
 11
-58.705770053730845
 21
177.36810604494002
 31
0.0
  0
LINE
  8
0
  6
CONTINUOUS
 62
               3
  5
346
 10
-58.705770053730845
 20
177.36810604494002
 30
0.0
 11
-51.705770053730816
 21
187.86810604493996
 31
0.0
  0
LINE
  8
0
  6
CONTINUOUS
 62
               3
  5
347
 10
-241.11445861252159
 20
13.499536356389626
 30
0.0
 11
-241.1144586125213
 21
1.601873730520424
 31
0.0
  0
LINE
  8
0
  6
CONTINUOUS
 62
               3
  5
348
 10
-435.6144586125215
 20
18.601873730520765
 30
0.0
 11
-435.61445861252116
 21
1.6018737305205377
 31
0.0
  0
LINE
  8
0
  6
CONTINUOUS
 62
               3
  5
349
 10
-241.1144586125213
 20
1.601873730520424
 30
0.0
 11
-435.61445861252116
 21
1.6018737305205377
 31
0.0
  0
LINE
  8
0
  6
CONTINUOUS
 62
               3
  5
34A
 10
-433.61445861252162
 20
20.601873730520651
 30
0.0
 11
-251.19315945489555
 21
20.601873730520538
 31
0.0
  0
ARC
  8
0
  6
CONTINUOUS
 62
               3
  5
34B
 10
-433.61445861252162
 20
18.601873730520765
 30
0.0
 40
1.9999999999999998
 50
89.999999999999773
 51
179.9999999999996
  0
LINE
  8
0
  6
CONTINUOUS
 62
               3
  5
34C
 10
-242.04647262974541
 20
15.190514162451791
 30
0.0
 11
-250.12517347211949
 21
20.292851536582589
 31
0.0
  0
ARC
  8
0
  6
CONTINUOUS
 62
               3
  5
34D
 10
-251.19315945489555
 20
18.601873730520651
 30
0.0
 40
1.9999999999999998
 50
57.724355685422388
 51
89.999999999999773
  0
ARC
  8
0
  6
CONTINUOUS
 62
               3
  5
34E
 10
-243.11445861252147
 20
13.499536356389626
 30
0.0
 40
1.9999999999999998
 50
359.9999999999992
 51
417.72435568542141
  0
LINE
  8
0
  6
CONTINUOUS
 62
               3
  5
34F
 10
299.23599733728895
 20
-3.4482882863788973
 30
0.0
 11
232.73599733729225
 21
-3.4482882863765099
 31
0.0
  0
LINE
  8
0
  6
CONTINUOUS
 62
               3
  5
350
 10
232.73599733729225
 20
-3.448288286379011
 30
0.0
 11
154.2359973372894
 21
-3.4482882863796931
 31
0.0
  0
LINE
  8
0
  6
CONTINUOUS
 62
               3
  5
351
 10
319.16933067062735
 20
0.5517117135751732
 30
0.0
 11
134.16933067061893
 21
0.5517117135423177
 31
0.0
  0
LINE
  8
0
  6
CONTINUOUS
 62
               3
  5
352
 10
136.16933067061746
 20
19.551711713542659
 30
0.0
 11
317.16933067062803
 21
19.551711713575173
 31
0.0
  0
LINE
  8
0
  6
CONTINUOUS
 62
               3
  5
353
 10
319.16933067062803
 20
17.551711713575287
 30
0.0
 11
319.16933067062791
 21
0.5517117135751732
 31
0.0
  0
ARC
  8
0
  6
CONTINUOUS
 62
               3
  5
354
 10
317.16933067062803
 20
17.551711713575287
 30
0.0
 40
1.9999999999999998
 50
359.99999999999915
 51
449.99999999999898
  0
LINE
  8
0
  6
CONTINUOUS
 62
               3
  5
355
 10
134.16933067061746
 20
17.551711713542772
 30
0.0
 11
134.1693306706178
 21
0.5517117135425451
 31
0.0
  0
ARC
  8
0
  6
CONTINUOUS
 62
               3
  5
356
 10
136.16933067061746
 20
17.551711713542772
 30
0.0
 40
1.9999999999999998
 50
89.999999999999787
 51
179.9999999999996
  0
LINE
  8
0
  6
CONTINUOUS
 62
               3
  5
357
 10
232.73599733729225
 20
-8.448288286379011
 30
0.0
 11
154.2359973372894
 21
-8.4482882863792383
 31
0.0
  0
LINE
  8
0
  6
CONTINUOUS
 62
               3
  5
358
 10
299.23599733728895
 20
-8.4482882863791247
 30
0.0
 11
232.73599733729225
 21
-8.4482882863779878
 31
0.0
  0
LINE
  8
0
  6
CONTINUOUS
 62
               3
  5
359
 10
292.73599733728793
 20
-28.97471191913429
 30
0.0
 11
310.44539431705505
 21
-28.97471191913429
 31
0.0
  0
LINE
  8
0
  6
CONTINUOUS
 62
               3
  5
35A
 10
292.41755007373308
 20
-32.974711919137476
 30
0.0
 11
296.41476074635329
 21
-32.974711919137476
 31
0.0
  0
LINE
  8
0
  6
CONTINUOUS
 62
               3
  5
35B
 10
289.41476074635329
 20
-32.974711919137476
 30
0.0
 11
292.41476074635318
 21
-32.974711919137476
 31
0.0
  0
LINE
  8
0
  6
CONTINUOUS
 62
               3
  5
35C
 10
290.41755007373297
 20
-32.974711919137476
 30
0.0
 11
287.6966562487396
 21
-32.974711919137476
 31
0.0
  0
LINE
  8
0
  6
CONTINUOUS
 62
               3
  5
35D
 10
135.7359973372877
 20
-28.974711919134858
 30
0.0
 11
153.44539431705493
 21
-28.974711919134858
 31
0.0
  0
ARC
  8
0
  6
CONTINUOUS
 62
               3
  5
35E
 10
141.27049162700891
 20
-35.221982093625996
 30
0.0
 40
6.0
 50
350.87867759270603
 51
367.15448255236606
  0
ARC
  8
0
  6
CONTINUOUS
 62
               3
  5
35F
 10
312.06816971423893
 20
-35.221982093626366
 30
0.0
 40
6.0
 50
172.84551744762913
 51
189.12132240729247
  0
LINE
  8
0
  6
CONTINUOUS
 62
               3
  5
360
 10
317.11412966402872
 20
-29.042116023562173
 30
0.0
 11
312.16933067062371
 21
-29.214792209393977
 31
0.0
  0
LINE
  8
0
  6
CONTINUOUS
 62
               3
  5
361
 10
-104.11445861252439
 20
348.11587352153032
 30
0.0
 11
-104.11445861252456
 21
418.81539168165205
 31
0.0
  0
LINE
  8
0
  6
CONTINUOUS
 62
               3
  5
362
 10
-104.1144586125242
 20
270.62033856835086
 30
0.0
 11
-104.11445861252403
 21
199.92082040822902
 31
0.0
  0
LINE
  8
0
  6
CONTINUOUS
 62
               3
  5
363
 10
-84.114458612524686
 20
179.36810604494065
 30
0.0
 11
-84.114458612524686
 21
199.92082040827916
 31
0.0
  0
LINE
  8
0
  6
CONTINUOUS
 62
               3
  5
364
 10
-84.114458612524686
 20
208.32290414712924
 30
0.0
 11
-84.114458612524686
 21
410.41330794275063
 31
0.0
  0
LINE
  8
0
  6
CONTINUOUS
 62
               3
  5
365
 10
-84.114458612524686
 20
418.81539168160606
 30
0.0
 11
-84.114458612524686
 21
439.36810604493934
 31
0.0
  0
ARC
  8
0
  6
CONTINUOUS
 62
               3
  5
366
 10
-86.114458612524686
 20
439.36810604493934
 30
0.0
 40
2.0
 50
0.0
 51
89.999999999999801
  0
ARC
  8
0
  6
CONTINUOUS
 62
               3
  5
367
 10
-86.114458612524686
 20
179.36810604494065
 30
0.0
 40
2.0
 50
269.99999999999937
 51
359.9999999999992
  0
POINT
  8
0
  6
CONTINUOUS
 62
               5
  5
368
 10
148.16933067062402
 20
-10.974711919137462
 30
0.0
  0
POINT
  8
0
  6
CONTINUOUS
 62
               5
  5
369
 10
-361.15921376657229
 20
329.998316524041
 30
0.0
  0
ENDSEC
  0
EOF
